Song name
# A B C D E F G H I J K L M N O P Q R S T U V W X Y Z

U2 - Wake Up Deadman tab

(Intro):
e|-------------------------|
B|-------------------------|
G|------14---------14----o-|
D|------14---------14----o-|
A|--12------12-12----------|
E|-------------------------|

(Verse):
e|-----------------------------------------|
B|-----------------------------------------|
G|------14---------14-------14--------14---|
D|------14---------14-------14--------14---|
A|--12------12-12-------12------12-12------|
E|-----------------------------------------|
    Jesus. . .                  Jesus. . .

e|-----------------------------------------|
B|-----------------------------------------|
G|------12---------12-------12--------12---|
D|------12---------12-------12--------12---|
A|--10------10-10-------10------10-10------|
E|-----------------------------------------|
    Help me. . .                I'm all al-

e|-----------------------------------|
B|------------------------6------6---|
G|-----10-----------------7------7---|
D|-----10----------------------------|
A|--8-------8-8----8-7--5----5-5-----|
E|-----------------------------------|
   -one       in this world. . .   -and a

e|-------------------5-------5---|
B|-----8-------8-----5-------5---|
G|-----9-------9-----------------|
D|-------------------------------|
A|-------------------------------|
E|--8-----8-8------5----5-5------|
    Fucked up world is is too

(Chorus):
   Am
e|-----------------------------------------|
B|-----------------------------------------|
G|------14---------14-------14--------14---|
D|------14---------14-------14--------14---|
A|--12------12-12-------12------12-12------|
E|-----------------------------------------|
    Wake up. . .                wake up. . .

    G                    D
e|-------------------------------------|
B|-------------------------7-------7---|
G|------12-----------------7-------7---|
D|------12-----------------------------|
A|--10------10-10---3-2--5----5-5------|
E|-------------------------------------|
    Dead man. . .

The rest of the song is played as written above.

The chords on the chorus are written in because, if you listen to the track, the chords 
strummed with a distortion effect.  I didn't bother to tab this because the part is so obvious.

The verse and chorus written here are, I believe, completely correct.  If you were to 
any questions or corrections, please refer them to the following address: 
 Thank you.
Tap to rate this tab
 
# A B C D E F G H I J K L M N O P Q R S T U V W X Y Z