Song name
# A B C D E F G H I J K L M N O P Q R S T U V W X Y Z

U2 - Mlk tab

G

    Sleep     Sleep   to- night
1-------------------------------|
2-------------------------------|
3---7/9\7------7/9-----7--------|
4-------------------------7h9---|
5-------------------------------|
6-------------------------------|

     And   may  your dreams be realized
1------------------------------------------|
2------------------------------------------|
3----7/9---7-------------------------------|
4---------------7----7h9-----9p7\5-5-------|
5------------------------------------------|
6------------------------------------------|

    If the thun- der cloud passes rain
1------------------------------------------|
2------------------------------------------|
3-----------7/9--9---7-----7/9-7-----------|
4---5--5--------------------------7h9------|
5------------------------------------------|
6------------------------------------------|

    So   let it rain, rain down on him
1------------------------------------------|
2------------------------------------------|
3---7/9--7---------------------------------|
4------------7--7h9-----9p7-----5--5-------|
5------------------------------------------|
6------------------------------------------|

    Mmm m mmm  So   let it be
1------------------------------------------|
2------------------------------------------|
3--------------7/9--9---7------------------|
4---7/9\7\5----------------7h9-------------|
5------------------------------------------|
6------------------------------------------|

    Mmm m mmm  So   let it be
1--------------------------------------------|
2--------------------------------------------|
3--------------7/9--9---7--------------------|
4---7/9\7\5----------------7h9---------------|
5--------------------------------------------|
6--------------------------------------------|

(repeat 1st verse)

coda

   So   let it  rain, let it rain, rain on him
1---------------------------------------------|
2---------------------------------------------|
3---7/9--7------------------------------------|
4-----------7---7h9-----7h9---5------------5--|
5------------------------------------5--5-----|
6---------------------------------------------|
Tap to rate this tab
# A B C D E F G H I J K L M N O P Q R S T U V W X Y Z