Song name
# A B C D E F G H I J K L M N O P Q R S T U V W X Y Z

U2 - Elevation tab

-----------------------------------------------------------------------------
			     Elevation(UPDATED) - U2
-----------------------------------------------------------------------------
Tabbed by:Amanda Taylor
Email:amanda.taylor89@yahoo.ie
Pedals: Pod X3, Distortion, Wah Pedal, you can use a fuzz pedal.
Tuning:Standard
Intro
e|----------------------------------------------------------|
B|----------------------------------------------------------|
G|----------------------------------------------------------|
D|----9------0------9------0-------9------0------9-------0--|
A|----7------7------7------7-------7------7------7-------7--|
E|----------------------------------------------------------|Pod X3 for Intro
Main Verse
e|----------------------------------------------------------------|----------|
B|----------------------------------------------------------------|----------|
G|----------------------------------------------------------------|----------|
D|--9---9----------------9----9----------------9----9-------------|----------|
A|--7---7---7---7---7----7----7---7---7---7----7----7---7--7--5--5|----------|
E|----------5---5---5-------------5---5---5-------------5--5--3--3|----------|


e|-----------------------------------------------------------------------------|
B|-----------------------------------------------------------------------------|
G|-----------------------------------------------------------------------------|
D|--9---9----------------9----9----------------9----9--------------------------|
A|--7---7---7---7---7----7----7---7---7---7----7----7---7--7--5--5--7--7-------|
E|----------5---5---5-------------5---5---5-------------5--5--3--3--5--5-------|
Chorus

e|---------------------|----------------------------------------------------|
B|---------------------|----------------------------------------------------|
G|---------------------|----------------------------------------------------|
D|-----------------9--9|--------------------------9--9--9--9----------------|
A|---9--9----7--7--7--7|--9--9--9--9--7--7--7--7--7--7--7--7----------------|
E|---7--7----5--5------|--7--7--7--7--5--5--5--5----------------------------|-2 times    
                Repeat (I'm not sure how many times)
I maters what version you are listing to for this part. Sometimes you repeat the Chorus, 
sometimes the go right to the main verse.
Use the Wah pedal for the Chorus.

     Solo(Album version)
e|---------------------------------------------------------------------------|
B|---------------------------------------------------------------------------|
G|---------------------------------------------------------------------------|
D|--12121212-11111111-10101010-----------------------------------------------|
A|---------------------------------------------------------------------------|
E|--14141414-13131313-12121212-----------------------------------------------|
Repeat if Album version

    Solo(Live Version)
e|----------------------------------|-----------------------------------------|
B|----------------------------------|-----------------------------------------|
G|----------------------------------|-----------------------------------------|
D|--1414141414-1313131313-1212121212|-111111111110101010109-9-9-9-9-8-8-8-8-8-|
A|----------------------------------|-----------------------------------------|
E|--1212121212-1111111111-1010101010|-9-9-9-9-9-8-8-8-8-8-7-7-7-7-7-6-6-6-6-6-|
repeat 2
Wah, or Pod X3 pedal

e|---------------------------------------------------------------------------|
B|---------------------------------------------------------------------------|
G|---------------------------------------------------------------------------|
D|-7-7-7-7-7-7---------------------------------------------------------------|
A|---------------------------------------------------------------------------|
E|-5-5-5-5-5-5---------------------------------------------------------------|

You go back to the Chrous and finish up with the Verse.


************************************

////AMANDA T.\\\\

************************************
Tap to rate this tab
 
# A B C D E F G H I J K L M N O P Q R S T U V W X Y Z