Song name
# A B C D E F G H I J K L M N O P Q R S T U V W X Y Z

U2 - Gone tab

Gone by U2
Tabbed by Gunner
Tuned down 1/2 step

This is what The Edge played during Popmart tour. This is very similar to the Gone(New 
mix) version.

Intro:

 E             E7
-0-0-0-0-0-0-0-0--|
-1-1-1-1-1/2-1-1--|
-2-2-2-2-2/3-2-0--|*4
-2-2-2-2-2/3-2-2--|
-0-0-0-0-0-0-0-0--|

VERSE:

 Asus       A                E
-0----------0----------------0-|
-3----------2----------------0-|
-2----------2----------------1-|*1
-2----------2----------------2-|
-0----------0----------------2-|
-x----------x----------------0-|

"GOODBYE" PART

  G            D            G              Em          C
--3--------|----2-2------|--3-----------|---0----0-----0-----------|
--3--------|----3---3----|--3-----------|---0-----0----1-----------|
--0--------|----2-----2--|--0-----------|---0--0---0---0-----------|
--0--------|----0--------|--0-----------|---2-2--------2-----------|
--2--------|----0--------|--2-----------|---2----------3----3-2-0--|
--3--------|-------------|--3----3-2----|---0----------------------|

CHORUS:

 Am          Dsus  D
 -------0----|-3---|--2--2------------|
.-----1---1--|-3---|--3----3----------|
 ---2-------2|-2---|--2------2--------|
 -2----------|-0---|--0---------------|
.------------|-----|------------------|
 ------------|-----|------------------|

The Edge often played another version of chorus during live, i think this is what he played.

 Am                 D
-------------------------------|
-----------------10-10-10-10---|
--7-9-10---------12-11-12-11---|*3
--0-0-0-----------0--0--0--0---|
-------------------------------|
-------------------------------|


BRIDGE: 'Cause I'm already gone part

 C               Am
-0---------------0---|
-1---------------1---|
-0---------------2---|*2
-2---------------2---|
-3---------------0---|
---------------------|



„Closer to you every day“ part

 C               D
-0---------------2-----|
-1---------------3-----|
-0---------------2-----| *2
-2---------------0-----|
-3---------------x-----|
-----------------x-----|

End of middle eight part
 C               Em
------------------0----|
------------------0----|
---0--------------0----|
--2---------------2----|
-3-----2-0--------2----|
-----------3-0----0----|

Em is played in the third verse instead of E chord. Chorus is the same and the song ends 
with E and A or Asus chords
Goodbye
Tap to rate this tab
# A B C D E F G H I J K L M N O P Q R S T U V W X Y Z