Song name
# A B C D E F G H I J K L M N O P Q R S T U V W X Y Z

U2 - The Ground Beneath Her Feet tab

The Ground Beneath Her Feet by U2

e|----8----8----------------------------------|
B|------11----------8-------11--8-------------|
G|-----------------8------------------8-------|
D|--------------------------------------------|


e|------------------------------------------------------------------|
B|----8-----8h9p8-----------------------8-----9----8----------------|
G|------10---------------10-10------------10-----------10-----------|
D|------------------------------------------------------------------|

e|--------------------------------------------------------------|
B|----11-11-11-----9-8----------9-9-9----8----------------------|
G|--------------------------10---------------------10-8---------|
D|--------------------------------------------------------------|
 

e|------------------------------------------------------------------|
B|----8-----8h9p8-----------------------8-----9----8----------------|
G|------10---------------10-10------------10-----------10-----------|
D|------------------------------------------------------------------|
Tap to rate this tab
# A B C D E F G H I J K L M N O P Q R S T U V W X Y Z