Song name
# A B C D E F G H I J K L M N O P Q R S T U V W X Y Z

U2 - The Refugee tab

-------------------------------------------------------------------------------
                             the refugee - u2
-------------------------------------------------------------------------------
Tabbed by:
Email:

           l found this tab in my files of tabs that my mate made (copyed)
           when l try to learn this song still cant get right any help on this please
           feel free to adjust or what u can do  with it

      
  wa  war   she a refugee 
  I see her face l see her star-in back at me 
  wa war shes a refugee
  
e|---------------------------------------------------------------------------|
B|---------------------------------------------------------------------------|
G|-DRUMS HERE----------------------------------------------------------------|
D|---------------------------------------------------------------------------|
A|---------------------------------------------------------------------------|
E|---------------------------------------------------------------------------|

  her mama say one day she gonna live in a america
e|---------------------------------------------------------------------------|
B|---------------------------------------------------------------------------|
G|-----------------------------------------------------------------x---------|
D|---------------------------------------------7/9------(9)------------------|
A|---------------------------------------------------------------------------|
E|---------------------------------------------5/7------(7)------------------|
                     ooh   ooh   ooh

e|---------------------------------------------------------------------------|
B|---------------------------------------------------------------------------|
G|---------------------------------x-x-x-------8--------8-----(8)-----8------|
D|---7/9-----(9)-------------------------------------------------------------|
A|------------------------------------------------9--9--9-----(9)-----8------|
E|---5/7-----(7)-------------------------------------------------------------|


e|---------------------------------------------------------------------------|
B|---------------------------------------------------------------------------|
G|-8/6-----4---4---4--(4)------4---4/-----8----------8----8----6-----4---4-/-|
D|---------------------------------------------------------------------------|
A|---------------------------------------------9--9--9-----------------------|
E|---------------------------------------------------------------------------|
                                              in the morning    
                                              in the evening 
e|---------------------------------------------------------------------------|
B|---------------------------------------------------------------------------|
G|-4---------(4)--------------(4)------(4)------------------(4)-----(4)------|
D|-4---------(4)--------------(4)------(4)------------------(4)-----(4)------|
A|---------------------------------------------------------------------------|
E|---------------------------------------------------------------------------|

       she is            waiting                     waitng for her
 
e|---------------------------------------------------------------------------|
B|----------------------------5-----5----------5-----5--4--------------------|
G|-------4-------4-------6-------6------6------6-------------6/----8---------|
D|---4-------------------7---------------------7-----------------------------|
A|---------------------------------------------------------------------------|
E|---------------------------------------------------------------------------|

      ship  to  sail                     sail  a             way
      man    to come                and take her by         her hand
     
e|---------------------------------------------------------------------------|
B|---7---------7-----------------7---------------------5---5---5-----5-------|
G|---8--------------------------------------4---4------6-----6---6---6-------|
D|-------------------9-----9-----9-------4-------------7-------------7-------|
A|---------------------------------------------------------------------------|
E|---------------------------------------------------------------------------|

  
    and take her to    promised land 

e|---------------------------------------------------------------------------|
B|--5---4--------------7-----7-----7------(7)----(7)-----(7)-----------------|
G|-----------6/--8-----8-----------------------------------------------------|
D|------------------------------9-----9---(9)----(9)-----(9)-----------------|
A|---------------------------------------------------------------------------|
E|---------------------------------------------------------------------------|

     wa    war       ooh pop pa go to war  he go to fight but he  dont know what for
                     she  sa pretty  face  born at the wrong time  in the wrong place
                     she a refugee  shell come and dance she come and keep you company


e|----------------------------------------------------------------------------------|
B|----------------------------------------------------------------------------------|
G|----------------------------------------------------------------------------------|
D|---7/--9----(9)------x--------x----x------7/--9------(9)------x-----x-----x-------|
A|----------------------------------------------------------------------------------|
E|---5/--7----(7)---------------------------5/--7------(7)--------------------------|

    wa    war       ooh pop  pa go to war   her ma  ma say  one day   hes gonna comeback from
                    shes a pretty face      her ma  ma say  one day   shes gonna live in america 
                    she a refugee           her ma  ma say  one day   shes gonna live in america 
                     
e|------------------------------------------------------------------------------------------|
B|------------------------------------------------------------------------------------------|
G|------------------------------------------------------------------------------------------|
D|--7/-9------(9)---x-----------7----------7/-9-----(9)-------------7-----------7-----------|
A|---------------------------------9--------------------------------------------------------|
E|--5/-7------(7)--------------------------5/-7-----(7)-------------5-----------5-----------|

    far  away

                                               yeah america

e|--------------------------------------------------------------------------------------------|
B|--------------------------------------------------------------------------------------------|
G|--------------------------------------------------------------------------------------------|
D|--7/-9-------(9)---------7----7--------7---------7---9---------(9)------9--7----------------|
A|---------------------------------x--x-----x-------------x--x-------x-----------x-x--x-x-----|
E|--5/-7-------(7)---------5----5--------5---------5---7---------(7)------7--5----------------|


     
     ( far  away)   ooh        heartbeat       l can hear a heartbeat 
e|---------------------------------------------------------------------------|
B|---------------------------------------------------------------------------|
G|-----drums---here----------------------------------------------------------|
D|---------------------------------------------------------------------------|
A|---------------------------------------------------------------------------|
E|---------------------------------------------------------------------------|



             (yeah america)

e|---------------------------------------------------------------------------------------------|
B|---------------------------------------------------------------------------------------------|
G|--8----------------------6-/---4--4--4----(4)/----8-------------------8--4--4--4--(4)--------|
D|-----------9---(9)----------------------------------------(9)-----9--------------------------|
A|-----9--9--9---(9)-----------------------------------9--9-(9)-----9--------------------------|
E|---------------------------------------------------------------------------------------------|

e|-------------------------------------------------l--------------------------|
B|-------------------------------------------------l--------------------------|
G|-2--4--2--4--2--4--2--4--2--4--2--4--2--4--2--4--l--------------------------|
D|-------------------------------------------------l----7---7---7---7---------|
A|-------------------------------------------------l--------------------------|
E|-------------------------------------------------l----5---5---5---5---------|


   ki  a    ki  a   a                  ki  a    ki  a   a

e|---------------------------------------------------------------------------|
B|---------------------------------------------------------------------------|
G|-----------------x-x-x-x-x-x-x-------------------x-x-x-x-x-x-x-------------|
D|-7/-9----(9)-------------------------7/-9---(9)----------------------------|
A|---------------------------------------------------------------------------|
E|-5/-7----(7)-------------------------5/-7---(7)----------------------------|
Tap to rate this tab
# A B C D E F G H I J K L M N O P Q R S T U V W X Y Z