Song name
# A B C D E F G H I J K L M N O P Q R S T U V W X Y Z

U2 - Sunday Bloody Sunday Acoustic chords

Highlighted       Show chord diagrams
-----------------------------------------------------------------------------
                             Sunday Bloody Sunday By U2 

-----------------------------------------------------------------------------
(exclusive acoustic live performance for One.org on YouTube)

Tabbed by: jeffk_ca
E-mail: jffko@hotmail.com 

Tuning: Std capo 3

Riff = [R] keep repeating until chord changes
e|--------------------------------------------------------------------------|
B|---------0---------0----------0-----------0-------------------------------|
G|------0----0----0----------0----0------0-----0----------------------------|
D|----2--------0------------------------------------------------------------|
A|-----------------------3-----------3--------------------------------------|
E|--------------------------------------------------------------------------|

[R]x2

[R]
I can't believe the news today
I can close my eyes and make it go away

G               
How long
Am
How long must we sing this song
G               Am
how long  how long

[R]
tonight
we can be as one 
tonight

[R]
broken bottles on the children's feet
bodies strewn across the dead end street
I won't heed the battle call
Puts my back up my back up
my back up against the wall

[R]
Sunday Bloody Sunday
Sunday Bloody Sunday

Bb     Am              G              G
Sunday Bloody Sunday
Sunday Bloody Sunday

Em      G       C       C  

Em      G       C       C  
And the battles yet begun
Many have lost but tell me who has won?
The trenches dug within our hearts 
mothers children brothers sisters torn apart

Em      G       C       C
Sunday Bloody Sunday
Sunday Bloody Sunday

G               
How long
Am
How long must we sing this song
G               C
how long  how long

Em      G       C       C   
tonight       we can be as one
Em      G       C       C  
tonight       

Em      G       C       C  
tonight   tonight 
Em      G       C       C   
tonight   tonight  

[R]x2

[R]
On another broken hill
red crosses and crescent moon collides
little grooms pray to know gods will
scratching in the dirt and signing up to die
scorched earth or a cruel sun
is this the battle Jesus won?
on  
Sunday Bloody Sunday
Sunday Bloody Sunday
Sunday Bloody Sunday
Sunday Bloody Sunday 
Tap to rate this tab
# A B C D E F G H I J K L M N O P Q R S T U V W X Y Z