Song name
# A B C D E F G H I J K L M N O P Q R S T U V W X Y Z

U2 - Ordinary Love tab

As performed on The Tonight Show With Jimmy Fallon

http://m.youtube.com/watch?v=Fum3g86zUPc 

Chords Used :
C#m, G#m, B, F#

    C#m                 G#m
E||-----------------------------------------------|
B||-----5-----5-------------4-----4---------------|
G||---6-----6-----6-------4-----4-----4-----------|
D||-----------------------------------------------|
A||-4-----4-----4---------------------------------|
E||---------------------4-----4-----4-------------|
    B                  F#
E||-----------------------------------------------|
B||-----4----4------------------------------------|
G||---4----4-----4----------3-----3---------------|
D||-----------------------4-----4-----4-----------|
A||-2----2-----2----------------------------------|
E||---------------------2-----2-----2-------------|
Tap to rate this tab
 
# A B C D E F G H I J K L M N O P Q R S T U V W X Y Z