U2 - One Acoustic tab

U2 One Live Acoustic Intro

Standard Tuning

Acoustic ::::::

Special song ,whats make it more special is the fantastic intro.
Here is nice and easy way of playing it in a acoustic guitar:


    ||   A7 chord  ||                              ||  Bar D  chord form ||
e|-------0------------------------------------------------------------------------------------|
B|-------1---3--1h3--1--3p1p0(with pinky)--------------------------5--------------------------|
G|--------------2----2-----------------------------------7-5-7-5h7-5--------------------------|
D|-------------------------------------------------------7-5-7-5h7(hammer with ring finger----|
A|---0--------------------------------------3/5-----------------------------------------------|
E|--------------------------------------------------------------------------------------------|

     ||  Fmaj7 chord form ||
e|--------------------------------------------------------------------------------------------|
B|-----------1--1h3h1h3--3p1(hammer with pinky)-----------3-----------------------------------|
G|-------2------------------------------------------------4---4h5-4h5-4(hammer with pinky)----|
D|---3-------------------------------------------3/5------------------------------------------|
A|--------------------------------------------------------------------------------------------|
E|--------------------------------------------------------------------------------------------|



How The edge plays( of course with a electrical guitar):



          Bar A chord                        Bar D chord
e|-----------------------------------------------------------------------------------|
B|---------5-------------------------------------------------------------------------|
G|---------5h7-5h7(with pinky)-------------------------------------------------------|
D|------------------------------------------12-10-12-10h12-(hammer with ring finger--|
A|------------------------------------------12-10-12-10h12---------------------------|
E|--3/5-----------------------------5/10---------------------------------------------|


     ||  Fmaj7 chord form ||
e|--------------------------------------------------------------------------------------------|
B|-----------1--1h3h1h3--3p1(hammer with pinky)-----------3-----------------------------------|
G|-------2------------------------------------------------4---4h5-4h5-4(hammer with pinky)----|
D|---3-------------------------------------------3/5------------------------------------------|
A|--------------------------------------------------------------------------------------------|
E|--------------------------------------------------------------------------------------------|


I HOPE U WILL LIKE IT, DONT FORGET TO RATE IT.....  ador11

Tap to rate this tab
 
# A B C D E F G H I J K L M N O P Q R S T U V W X Y Z