Song name
# A B C D E F G H I J K L M N O P Q R S T U V W X Y Z

U2 - Hands That Built America tab

U2 Tab, Hands That Built America (Gangs Of New York Theme)
This is the bit Played on a kewboard by the edge, but tured into Tab
This is my first Tab but im sure its 100% write
Tabbed By a_smart_rocker 

E-----12--------12---10----------------------------|
B----------10-------------12---10/8---8---8---10---|
G--------------------------------------------------|
D--------------------------------------------------|
A--------------------------------------------------|
E--------------------------------------------------|

E-----12--------12---10----------------------------|
B----------10-------------12---10/8---8---10-------|
G--------------------------------------------------|
D--------------------------------------------------|
A--------------------------------------------------|
E--------------------------------------------------|
Tap to rate this tab
# A B C D E F G H I J K L M N O P Q R S T U V W X Y Z