Song name
# A B C D E F G H I J K L M N O P Q R S T U V W X Y Z

U2 - Crumbs From Your Table tab

U2
Crumbs From Your Table

Intro
--7--7--7--7-----5--5--5----7--7--7--7---------------------2----|
---5--5--5--5-----5--5--5----5--5--5--5--------------------0----|
-7-----7-----7--7-----6----7-----7-----7--0--0--0--0--0--0-0----|
------------------------------------------12-12-12-11-11-9-2----|
-----------------------------------------------------------2----|
----------------------------------------------------------------|

D    A     G   D   A    G     D     A    G     D    A    G
w/ slide
----------------------------------------------------------------|
----------------------------------------------------------------|
--7-9-9-9-9-9-9-7-9-9-9-9s11-9s11-9s11-7-9-9-9-9-9-6-7-6-7-6-7--|  2x
----------------------------------------------------------------|
----------------------------------------------------------------|
----------------------------------------------------------------|


Verse I

        D    A       G          D   A        G
From the brightest star Comes the blackest hole
You had so much to offer Why did you offer your soul?
I was there for you baby When you needed my help
Would you deny for others What you demand for yourself?


Pre-Chorus

D         A     D A  G
Cool down mama, cool off
Cool down mama, cool off

------------------------------------------------|
------------------------------------------------|
------------------------------------------------|
------------------------------------------------|
--s-4-0-0-5-0-4-0-------------------------------|
------------------3-3-3-3-----------------------|


Chorus (Intro riff)

    Em                 G
You speak of signs and wonders
      D              A
But I need something other
          Em             G
I would believe if I was able
                       Em               G      G/F#
But I'm waiting on the crumbs from your table

(Intro Slide part)

Verse II

You were pretty as a picture  It was all there to see
Then your face caught up with your psychology
With a mouth full of teeth  You ate all your friends
And you broke every heart thinking every heart mends


Chorus

You speak of signs and wonders
But I need something other
I would believe if I was able
But I'm waiting on the crumbs from your table


Bridge (Chorus riffs and chords)

Where you live should not decide
Whether you live or whether you die
Three to a bed, Sister Ann, she said
Dignity passes by


Solo (Verse Chords)

--------------------------------------|
--------------------------------------| Repeat 3x
--------------------------------------|
--s12-11-9-7-4-2-2-0-2-2h4p2-0--------|
--------------------------------------|
--------------------------------------|

------------------------------------|
------------------------------------|
------------------------------------|
--s12-11-9-7s12-11-11-12-12-14------|
------------------------------------|
------------------------------------|


Chorus

And you speak of signs and wonders
But I need something other
I would believe if I was able
I'm waiting on the crumbs from your table


(Intro slide part)


Outro Solo (somewhat like this)
----------------------------------------------------------------|
----------------------------------------------------------------|
-12s19-18/19/18/19/19-16-18-19-16-18-19-14-16-18----------------|
----------------------------------------------------------------|
----------------------------------------------------------------|
----------------------------------------------------------------|

End
----------------------------------------------------------------|
----------------------------------------------------------------|
--14h16-16-14-12h14-14------------------------------------------|
----------------------------------------------------------------|
----------------------------------------------------------------|
----------------------------------------------------------------|


Yost with the Most
Tap to rate this tab
# A B C D E F G H I J K L M N O P Q R S T U V W X Y Z