Song name
# A B C D E F G H I J K L M N O P Q R S T U V W X Y Z

U2 - Original Of The Species tab

Title: Original of the species
Artist: U2
Album: How To Dismantle An Atomic Bomb

GUITAR I: LEAD
GUITAR II: RYTHM

INTRO: 

GUITAR I:PLAY THIS TWO TIMES
|----22--00----------22--44--22------------|
|22----------00--22------------------------|
|------------------------------------------|
|------------------------------------------|
|00----------------------44----------------|
|--------00------22------------------------|

VERSE I:

GUITAR II:
|---0-0-0-0-0-0~--0-0-0----2----2-2-2-2----|
|---2-2-2-2-2-0~--0-0-0----2----2-2-2-2----|
|---2-2-2-2-2-1~--2-2-1----2----2-2-2-2----|
|-------------2~--------2--4--4-4-4-4-4----|
|0-----------------------------------------|
|------------------------------------------|
(CONTINUED)
|--4-4-5-5-------0-0-0-0-0--0--0-0-0-------|
|--5-5-5-5-5-----2-2-2-2-2--0--0-0-0-------|
|--6-6-6-6-6-----2-2-2-2-2--1--2-2-1-------|
|----------6----------------2--------------|
|4------------0----------------------------|
|------------------------------------------|
(CONTINUED)
|----2---2-2-2---4-4-5-5-4-----------------|
|----2---2-2-2---5-5-5-5-5-5~--------------|
|----2---2-2-2---6-6-6-6-6-6~--------------|
|-2--4-4-4-4-4--4----------6~--------------|
|------------------------------------------|
|------------------------------------------|

PRE-CHORUS: PLAY THIS TWO TIMES

GUITAR I:
|----------2-2-2-2--5-5-5-5-5-3-0-3-5-3-0-3|
|----------3-3-3-3--5-5-5-5----------------|
|-4-4-4-4--2-2-2-2--6-6-6-6----------------|
|-5-5-5-5--0-0-0-0--7-7-7-7----------------|
|-5-5-5-5----------------------------------|
|-3-3-3-3----------------------------------|
(CONTINUED)
|5~------5~--------------------------------|
|5~------5~--------------------------------|
|--------------4-2-5-4-7-5-9-7-9~~---------|
|------------------------------------------|
|------------------------------------------|
|------------------------------------------|

CHORUS:

GUITAR I:
|----4~------------------4~----------------|
|----5~------------------5~----------------|
|2~--6~---1~---6~---2~---6~---1~-----------|
|4~--6~---2~---7~---4~---6~---2~-----------|
|4~-------2~---7~---4~--------2~-----------|
|2~-------0~---5~---2~--------0~-----------|

THEN,:

GUITAR I:
|9---9---9-12-10-10~-9---9---9-12-10-10~---|
|-10--10--------------10--10---------------|
|------------------------------------------|
|------------------------------------------|
|------------------------------------------|
|------------------------------------------|
(CONTINUED)
|9---9----9-12-10-10~----0----0--0--0--0---|
|--9---10------------1214-1214-14-10-10--12|
|------------------------------------------|
|------------------------------------------|
|------------------------------------------|
|------------------------------------------|

GUITAR II:
|------------------4~----------------------|
|------------------5~----------------------|
|6~-------2~-------6~-------1~-------------|
|7~-------4~-------6~-------2~-------------|
|7~-------4~----------------2~-------------|
|5~-------2~----------------0~-------------|

AFTER-CHORUS:

GUITAR I:PLAY THIS TWO TIMES
|----22--00----------22--44--22------------|
|22----------00--22------------------------|
|------------------------------------------|
|------------------------------------------|
|00----------------------44----------------|
|--------00------22------------------------|

VERSE II:

GUITAR II:
|---0-0-0-0-0-0~--0-0-0----2----2-2-2-2----|
|---2-2-2-2-2-0~--0-0-0----2----2-2-2-2----|
|---2-2-2-2-2-1~--2-2-1----2----2-2-2-2----|
|-------------2~--------2--4--4-4-4-4-4----|
|0-----------------------------------------|
|------------------------------------------|
(CONTINUED)
|--4-4-5-5-------0-0-0-0-0--0--0-0-0-------|
|--5-5-5-5-5-----2-2-2-2-2--0--0-0-0-------|
|--6-6-6-6-6-----2-2-2-2-2--1--2-2-1-------|
|----------6----------------2--------------|
|4------------0----------------------------|
|------------------------------------------|
(CONTINUED)
|----2---2-2-2---4-4-5-5-4-----------------|
|----2---2-2-2---5-5-5-5-5-5~--------------|
|----2---2-2-2---6-6-6-6-6-6~--------------|
|-2--4-4-4-4-4--4----------6~--------------|
|------------------------------------------|
|------------------------------------------|

THEN,

GUITAR II: PLAY THIS TWO TIMES
|----------2-2-2-2--5-5-5-5-5-3-0-3-5-3-0-3|
|----------3-3-3-3--5-5-5-5----------------|
|-4-4-4-4--2-2-2-2--6-6-6-6----------------|
|-5-5-5-5--0-0-0-0--7-7-7-7----------------|
|-5-5-5-5----------------------------------|
|-3-3-3-3----------------------------------|

GUITAR I: PLAY THIS TWO TIMES
|------------------------------------------------|
|------12~-------10~--15-14---15-14-15-14--------|
|------X---------X-------X--14------------14-----|
|10s12-12~-10s12-12~-----14-----------------14X-X|
|------------------------------------------------|
|------------------------------------------------|

THEN,

GUITAR II:
|0~~---------0~~----------5~~--------------|
|1~~---------1~~----------5~~--------------|
|2~~---------0~~----------6~~--------------|
|2~~---------2~~---------------------------|
|------------3~~---------------------------|
|------------------------------------------|

GUITAR I:
|------------------------------------------|
|------------------------------------------|
|16b-18-16-14~--12-14--16b-18-16-14-12-14~-|
|------------------------------------------|
|------------------------------------------|
|------------------------------------------|
(CONTINUED)
|------------------------------------------|
|------------------------------------------|
|12----14\9---9~--X--X--2--0---------------|
|------------------------------------------|
|------------------------------------------|
|------------------------------------------|

PRE-CHORUS:
GUITAR I:
|----------2-2-2-2--5-5-5-5-5-3-0-3-5-3-0-3-|
|----------3-3-3-3--5-5-5-5-----------------|
|-4-4-4-4--2-2-2-2--6-6-6-6-----------------|
|-5-5-5-5--0-0-0-0--7-7-7-7-----------------|
|-5-5-5-5-----------------------------------|
|-3-3-3-3-----------------------------------|
(CONTINUED)
|5~------5~---------------------------------|
|5~------5~---------------------------------|
|--------------4-2-5-4-7-5-9-7-9~~----------|
|-------------------------------------------|
|-------------------------------------------|
|-------------------------------------------|

CHORUS:

GUITAR I:
|----4~------------------4~-----------------|
|----5~------------------5~-----------------|
|2~--6~---1~---6~---2~---6~---1~------------|
|4~--6~---2~---7~---4~---6~---2~------------|
|4~-------2~---7~---4~--------2~------------|
|2~-------0~---5~---2~--------0~------------|
(CONTINUED)
|-------------------------------------------|
|-------------------------------------------|
|9~-6-6-2-6b-7--6--4~~-2-6b-7--6~-X-2-2-6/7-|
|-------------------------------------------|
|-------------------------------------------|
|-------------------------------------------|
(CONTINUED)
|-------------------------------------------|
|-------------------------------------------|
|7\6-6~~--6\4-4-4~--4\2~--------------------|
|-------------------------------------------|
|-------------------------------------------|
|-------------------------------------------|

THEN,:

GUITAR I:
|9---9---9-12-10-10~-9---9---9-12-10-10~---|
|-10--10--------------10--10---------------|
|------------------------------------------|
|------------------------------------------|
|------------------------------------------|
|------------------------------------------|
(CONTINUED)
|9---9----9-12-10-10~----0----0--0--0--0---|
|--9---10------------1214-1214-14-10-10--12|
|------------------------------------------|
|------------------------------------------|
|------------------------------------------|
|------------------------------------------|

GUITAR II:
|------------------4~----------------------|
|------------------5~----------------------|
|6~-------2~-------6~-------1~-------------|
|7~-------4~-------6~-------2~-------------|
|7~-------4~----------------2~-------------|
|5~-------2~----------------0~-------------|
(CONTINUED)
|-------------------------------------------|
|0-0-0-0-0-0-0-0-0-0-0-0-0-0-0-0-0-0-0-0-0-0|
|2-2-2-2-2-2-2-2-2-2-2-2-2-2-2-2-2-2-2-2-2-2|
|2-2-2-2-2-2-2-2-2-2-2-2-2-2-2-2-2-2-2-2-2-2|
|0-0-0-0-0-0-0-0-0-0-0-0-0-0-0-0-0-0-0-0-0-0|
|-------------------------------------------|
(CONTINUED)
|-------------------------------------------|
|0-0-0-0-0----------------------------------|
|2-2-2-2-2----------------------------------|
|2-2-2-2-2----------------------------------|
|0-0-0-0-0----------------------------------|
|-------------------------------------------|

BRIDGE: PLAY THREE TIMES

GUITAR I:
|------------------------------------------------|
|------12~-------10~--15-14---15-14-15-14--------|
|------X---------X-------X--14------------14-----|
|10s12-12~-10s12-12~-----14-----------------14X-X|
|------------------------------------------------|
|------------------------------------------------|

THEN,

GUITAR I:
|---------------------------------------------|
|------12~-------10~--15-14---15-14-15-14-----|
|------X---------X-------X--14------------14--|
|10s12-12~-10s12-12~-----14-----------------14|
|---------------------------------------------|
|---------------------------------------------|

FINAL CHORUS:

GUITAR I: REPEAT THREE TIMES
|9---9---9-12-10-10~-9---9---9-12-10-10~---|
|-10--10--------------10--10---------------|
|------------------------------------------|
|------------------------------------------|
|------------------------------------------|
|------------------------------------------|
(CONTINUED)
|9---9----9-12-10-10~----0----0--0--0--0---|
|--9---10------------1214-1214-14-10-10--12|
|------------------------------------------|
|------------------------------------------|
|------------------------------------------|
|------------------------------------------|

GUITAR II: REPEAT THREE TIMES
|------------------4~----------------------|
|------------------5~---------------0~-----|
|6~-------2~-------6~-------1~------2~-----|
|7~-------4~-------6~-------2~------2~-----|
|7~-------4~----------------2~------0~-----|
|5~-------2~----------------0~-------------|

THEN,

GUITAR I:
|12---12-10---10-9---10---10-12-9---12-10--|
|--10-------10-----10---10--------9-------9|
|------------------------------------------|
|------------------------------------------|
|------------------------------------------|
|------------------------------------------|
(CONTINUED)
|10-9---10--9---10-9-10-14-10---14-12---12-|
|-----9-------9--------------10------10----|
|------------------------------------------|
|------------------------------------------|
|------------------------------------------|
|------------------------------------------|

GUITAR II:
|------4~~---2~~---------------------------|
|0~~---5~~---3~~---------------------------|
|2~~---6~~---2~~---------------------------|
|2~~---6~~---0~~---------------------------|
|0~~---------------------------------------|
|------------------------------------------|

OUTRO:

GUITAR I:
|12---12-10---10-9---10---10-12-9---12-10--|
|--10-------10-----10---10--------9-------9|
|------------------------------------------|
|------------------------------------------|
|------------------------------------------|
|------------------------------------------|
(CONTINUED)
|10-9---10--9---10-9-10-1410--1412--12-9---|
|-----9-------9-------------10----10----10-|
|------------------------------------------|
|------------------------------------------|
|------------------------------------------|
|------------------------------------------|
(CONTINUED)
|9-10-10~-9--9----9---9---9---9------------|
|----------10---10--10--10--10--10~~-------|
|--------------9---9---9---9---------------|
|------------------------------------------|
|------------------------------------------|
|------------------------------------------|

GUITAR II:
|-------4~------2~------4~-----------------|
|2~-----5~------3~------5~------2~~--------|
|2~-----6~------2~------6~------2~~--------|
|2~-----6~------0~------6~------2~~--------|
|0~-----------------------------0~~--------|
|------------------------------------------|
Tap to rate this tab
# A B C D E F G H I J K L M N O P Q R S T U V W X Y Z