Song name
# A B C D E F G H I J K L M N O P Q R S T U V W X Y Z

U2 - I Threw A Brick tab

-----------------------------------------------------------------------------
		  I THREW A BRICK THROUGH A WINDOW – U2
-----------------------------------------------------------------------------
Tabbed by: olive14	
Email: olive14@u2.com

Tuning: EbAbDbGbBbEb

e|-----------------------------------------------7\-Repeat except-----------|
B|-----------------------------------------------8\-1st note----------------|
G|-----------------------6-----------------------7\-------------------------|
D|---------7---0-----7-----7-------7---0-----7---9\-No slide at the---------|
A|-12\---7---7-----7---7-----7---7---7-----7---7-----end of 2nd time--------|
E|-----0---------0-------------0---------0----------------------------------|

e|-7-10-9-7--8--0-7-10-9-7--8—-0--------------------------------------------|
B|-8--8-8-8--8--0-8--8-8-8--8--0--------------------------------------------|
G|-7--7-7-7--9--9-7--7-7-7--9--9--------------------------------------------|
D|-9--9-9-9-10-10-9--9-9-9-10-10--------------------------------------------|
A|----------10-10----------10-10--------------------------------------------|
E|-----------8--8-----------8--8--------------------------------------------|

e|-7\5-5-5-7\5-5-5-5/7-7-5-5/7-7-7-7\5-5-5-7\5-5-5-5-5-5-5-5-5-5-5\---------|
B|-8\6-6-6-8\6-6-6-6/8-8-6-6/8-8-8-8\6-6-6-8\6-6-6-7-7-7-7-7-7-7-7\--Slide--|
G|-7\5-5-5-7\5-5-5-5/7-7-5-5/7-7-7-7\5-5-5-7\5-5-5-7-7-7-7-7-7-7-7\---up----|
D|-9\7-7-7-9\7-7-7-7/9-9-7-7/9-9-9-9\7-7-7-9\7-7-7-7-7-7-7-7-7-7-7\--second-|
A|-------------------------------------------------5-5-5-5-5-5-5-5\---time--|
E|--------------------------------------------------------------------------|

 Solo with bottleneck

e|--------------------------------------------------------------------------|
B|-------------------------9------12-------------------------9------12------|
G|-9\7-7/9-9\7-7/9-9\7-7/9---9/12----9\7-7/9-9\7-7/9-9\7-7/9---9/12---------|
D|--------------------------------------------------------------------------|
A|--------------------------------------------------------------------------|
E|--------------------------------------------------------------------------|

e|--------------------------------------------------------------------12-12\|
B|------------------------9------12-------------------------9------12----12\|
G|9\7-7/9-9\7-7\4-9\7-7/9---9/12----9\7-7/9-9\7-7/9-9\7-7/9---9/12-------12\|
D|--------------------------------------------------------------------------|
A|--------------------------------------------------------------------------|
E|--------------------------------------------------------------------------|

                            + + + + + + + + + +
e|-------------------------------------5------------------------------------|
B|---------During this part----------5---5----------------------------------|
G|----------with drums-------------5-------5--------------------------------|
D|----------Edge does------------5-----------5------------------------------|
A|---------some harmonics------5---------------5----------------------------|
E|-------------live---------------------------------------------------------|

As always… Hope this is helpful…

If you’d like to get Edge’s sound, check this site :
http://www.amnesta.net/edge_delay/  Good luck with it

| /  slide up
| \  slide down
| h  hammer-on
| p  pull-off
| ~  vibrato
| +  harmonic
| x  Mute note
=============================================================================
Tap to rate this tab
 
# A B C D E F G H I J K L M N O P Q R S T U V W X Y Z