Song name
# A B C D E F G H I J K L M N O P Q R S T U V W X Y Z

U2 - Bloody Sunday tab

song: bloody sunday
arist: u2
submitter: mike
(verse)
E-----2-------2------2------2-------|
B---3---3---3---3--3---3--3---3-----|
G-4-------2------0------0-----------|
D-----------------------------------|
A-----------------------------------|
E-----------------------------------|
(chrous)
E--2-2-2-2-x-2-x-2-2-2--x--3-3-3-3-x-3-x-3-3-3--x--3-3-3-3-x-3-x-3-|
B--3-3-3-3-x-3-x-3-3-3--x--3-3-3-3-x-3-x-3-3-3--x--2-2-2-2-x-2-x-2-|
G--4-4-4-4-x-4-x-4-4-4--x--0-0-0-0-x-0-x-0-0-0--x--3-3-3-3-x-3-x-3-|
D--4-4-4-4-x-4-x-4-4-4--x--0-0-0-0-x-0-x-0-0-0--x--0-0-0-0-x-0-x-0-|
A--2-2-2-2-x-2-x-2-2-2--x--2-2-2-2-x-2-x-2-2-2--x------------------|
E--2-2-2-2-x-2-x-2-2-2--x--3-3-3-3-x-3-x-3-3-3--x------------------|

thats the song
Tap to rate this tab
# A B C D E F G H I J K L M N O P Q R S T U V W X Y Z