Song name
# A B C D E F G H I J K L M N O P Q R S T U V W X Y Z

U2 - One Three Hill tab

PLEASE NOTE!!!!!
#This file is the author's own work and represents their interpretation of the song.
You may only use this file for private study, scholarship, or research.-#


Tabbed by Jura Bartonek (Jago syn Jungle) from Czech Repbulic.6.12.05. This is my
third tab.Some questions on juraeso@seznam.cz

Intro:
 E |-------------------------|--------------------------|-------------------------|
 B |-------------------------|--13--13--13--------------|-------------13--13--13--|
 G |----5-5---5/7---5--------|--12--12--12--12--12------|-----12--12--12--12--12--|
 D |----5-5---5/7---5--------|--------------12--12--10--|-10--12--12--------------|
 A |-------------------------|----------------------10--|-10----------------------|
 E |-------------------------|--------------------------|-------------------------|

 E |-------------------------|--------------------------|-------------|
 B |-------------------------|--------------------------|-------------|
 G |--12--12--------------12-|--12--10--10--10----------|-------------|
 D |--12--12--10--10--10--12-|--12--10--10--10--10--10--|-------------|
 A |----------10--10--10-----|------------------10--10--|-------------|
 E |-------------------------|--------------------------|-------------|


Riff 1: (Repeated throughout verses with variations)

e[----8-8-------8-8----------------6-6---------------8-8----8-8--6-8-----]
B[--8-----8---8-----8----6-6-----6-----6----6-6----8-----8--8-8--8-8-----]
G[---------------------5-----5------------5-----5------------------------]
D[-----------------------------------------------------------------------]
A[-----------------------------------------------------------------------]
E[-----------------------------------------------------------------------]

Riff 2: ("You run like a river...")

     (Bb)                      (F)                        (C5)

 E |-------------------------|--------------------------|-8---8-----8------8------|
 B |-11------11-------11-----|-10------10------10-----10|--8-----8-----8-----8----|
 G |-----10-------10------10-|-----10------10------10---|-------------------------|
 D |-------------------------|--------------------------|-------------------------|
 A |-------------------------|--------------------------|-------------------------|
 E |-------------------------|--------------------------|-------------------------|

Synth chords: (Played after cello solo, throughout 3rd verse and at very end)

        C         F                Bb5       F/C
 E |-------------------------|--------------------------|
 B |-------------------------|--------------------------|
 G |----9--------10----------|------10--------10--------|
 D |---10---------7----------|-------8---------7--------|
 A |--------------8----------|--------------------------|
 E |----8--------------------|-------6---------8--------|

NEBO:

e[-------------------------------------------------------------------------]
B[-------------------------------------------------------------------------]
G[-------------------------------------------------------------------------]
D[---5--5---5---5---5----7---7---7---7----8--8--8---8---7---7---7--7-5-5---].
A[-------------------------------------------------------------------------]
E[-------------------------------------------------------------------------]

KONEC:

 E |-------------------------|--------------------------|-8---8-----8------8------|
 B |-11------11-------11-----|-10------10------10-----10|--8-----8-----8-----8----|
 G |-----10-------10------10-|-----10------10------10---|-------------------------|
 D |-------------------------|--------------------------|-------------------------|
 A |-------------------------|--------------------------|-------------------------|
 E |-------------------------|--------------------------|-------------------------|
Tap to rate this tab
# A B C D E F G H I J K L M N O P Q R S T U V W X Y Z