Song name
# A B C D E F G H I J K L M N O P Q R S T U V W X Y Z

U2 - Dirty Day Live tab

U2 - Dirty Day (Live from ZooTV Zooropa tour in 1993)

Tune down half-step
         
Main Riff
E|--------------------------|
B|--------------------------|
G|--------------------------|
D|--------------------------|
A|--------------------------|
E|--10--10/5---8--8/3-------|

         Chorus

    D     A
E|--------5---------------3--------|
B|--7-7---5---------5-5---3--------|
G|--7-7-x-6---------5-5-x-4--------|
D|--7-7-x-7---7--7--5-5-x-5---5--5-|   2X
A|--5-5-x-7---7--7--3-3-x-5---5--5-|
E|--------5---5--5--------3---3--3-|

     Solo

E|-----------------------------|
B|-----------------------------|
G|-----------------------------|
D|-16/17\16--14---14/15\14--12-|
A|-----------------------------|
E|-----------------------------|

E|---------------------------------------------------------------------|
B|-----------------------------------------15-15---------15---------15-|
G|-----------------------------16-17-16-17-------17-16-17---17-16-17---|
D|-16/17\16--14--14--16-17-19------------------------------------------|
A|---------------------------------------------------------------------|
E|---------------------------------------------------------------------|

E|-14-14-14-14-14-15-15-15-17-17-17-17----------------------------------|
B|-------------------------------------17-17-17-17-17-17-17-17-15-15-15-|
G|----------------------------------------------------------------------|
D|----------------------------------------------------------------------|
A|----------------------------------------------------------------------|
E|----------------------------------------------------------------------|
Tap to rate this tab
# A B C D E F G H I J K L M N O P Q R S T U V W X Y Z