Guitaretab - guitar tabs
Song name
# A B C D E F G H I J K L M N O P Q R S T U V W X Y Z
Home / U / U2 / Mofo Live tab

U2 - Mofo Live tab

Mofo - Live version from Popmart tour 1997

Tune down half step.

with slide:
E|--17------(17)--/----3----\---17---|
B|-----------------------------------|
G|-----------------------------------|
D|-----------------------------------|       
A|-----------------------------------|
E|-----------------------------------|

with wah
E|--x-x--x--x--x----x-x---x---x----------|
B|--x-x--x--x--x----x-x---x---x----------|
G|--x-x--x--x--x----x-x---x---x----------|
D|---------------------------------------|       
A|---------------------------------------|
E|---------------------------------------|

Chorus 

E|-------------------------------------------------------|
B|-------------------------------------------------------|
G|-------------------------------------------------------|
D|-------------------------------------------------------|       
A|-------3-5---------3~~~~~3---------------3-------------|
E|--5--5------0--0-3-----------5-3-5---5--------5--3--5--|

Ending riff
[ Tab from: http://www.guitaretab.com/u/u2/72121.html ]
E|---12--12--12---12----14-----9-----9----9----9-----9-|
B|-10--10--10---10----10----10----10---10---10---10----|
G|-----------------------------------------------------|
D|-----------------------------------------------------|
A|-----------------------------------------------------|
E|-----------------------------------------------------|

E|---12-12--12-12--12----10---10--10---10---10----8---8--8--8--8--8----8-|
B|-10-10--10-10--10---10---10---10---10---10---10---10-10-10-10-10--10---|
G|-----------------------------------------------------------------------|
D|-----------------------------------------------------------------------|
A|-----------------------------------------------------------------------|
E|-----------------------------------------------------------------------|

E|---12--12-12-12-12-10-10-10-10-10--8--8--8--8--8-8-8-8-8-8-7-7-7-7-7-|
B|-10--10-10-10-10-10-10-10-10-10--10-10-10-10-10-6-6-6-6-6-5-5-5-5-5--|
G|---------------------------------------------------------------------|
D|---------------------------------------------------------------------|
A|---------------------------------------------------------------------|
E|---------------------------------------------------------------------|

E|--5-5-5-5-5-5-5-|
B|-5-5-5-5-5-5-5-5|
G|----------------|
D|----------------|
A|----------------|
E|----------------|
Related for Mofo Live tab
Advertisement will be closed in 10 seconds