Song name
# A B C D E F G H I J K L M N O P Q R S T U V W X Y Z

U2 - Into The Heart tab

==============
Into the Heart
==============
Tabbed by Albert Jové


Tune all the strings on your guitar down 1/2 a step.
He uses a lot of reverb and also a soft delay of 140 ms.


1|---------------------------------|-------------------------------|
2|---------------------------------|-------------------------------|
3|--7------------------------------|-----7-------------------------|
4|-------------5-------------------|---------------5---------------|
5|---------------------------------|-------------------------------|
6|---------------------------------|-------------------------------|

1|---------------------------------|-------------------------------|
2|---------------------------------|-------------------------------|
3|--7----5----4/-------------------|-----/7------------------------|
4|-------------------2-------------|---------------5---------------|
5|---------------------------------|-------------------------------|
6|---------------------------------|-------------------------------|

1|---------------------------------|-------------------------------|
2|---------------------------------|-------------------------------|
3|---7-----------------------------|-----7---5---4/----------------|
4|-------------5-------------------|-----5------------2------------|
5|---------------------------------|-------------------------------|
6|---------------------------------|-------------------------------|

1|-x-------------------------------|-------------------------------|
2|-0-------------------------------|-------------------------------|
3|-0-------------------------------|----------------------------0--|
4|-2-------------------------------|---------------------2---------|
5|-3-------------------------------|-------------------------3-----|
6|-3-------------------------------|-------------------------------|

1|----------------x----------------|-------------------------------|
2|----------------0----------------|-------------------------------|
3|----------------0----------------|--------------------------0----|
4|----------------2----------------|--------------------2----------|
5|----------------3----------------|-----------------3-----3-------|
6|----------------3----------------|-------------------------------|

1|---------------------------------|-------------------------------|
2|---------------------------------|-------------------------------|
3|--7------------------------------|-----7----5---4/---------------|
4|---------5-----------------------|-----5-------------2-----------|
5|---------------------------------|-------------------------------|
6|---------------------------------|-------------------------------|

1|---------------------------------|-------------------------------|
2|---------------------------------|-------------------------------|
3|--/7-----------------------------|-----7----5---4/---------------|
4|---------5-----------------------|-----5-------------2-----------|
5|---------------------------------|-------------------------------|
6|---------------------------------|-------------------------------|

1|-x-------------------------------|-------------------------------|
2|-0-------------------------------|-------------------------------|
3|-0-------------------------------|---0---------------------------|
4|-2-------------------------------|-----2-------4-5-4-------------|
5|-3-------------------------------|-------3-----5-----------------|
6|-3-------------------------------|-------------------------------|

1|--------x------------------------|-------------------------------|
2|--------0------------------------|-------------------------------|
3|--------0------------------------|---0---------------------------|
4|--5-----2------------------------|-----2-------4-5-4-------------|
5|--------3------------------------|-------3-----5-----------------|
6|--------3------------------------|-------------------------------|

1|---------------------------------|-------------------------------|
2|---------------------------------|-------------------------------|
3|---------------------------------|-------------------------------|
4|---5-----2-----------------------|-------------------------------|
5|---------------------------------|-----9----10----9----7---------|
6|---------------------------------|-------------------------------|

1|---------------------------------|-------------------------------|
2|---------------------------------|-------------------------------|
3|---------------------------------|-------------------0-----------|
4|---------------------------------|---------------0-------10------|
5|-5----7--------------------------|---9--10--12-------------------|
6|---------------------------------|-------------------------------|

1|---------------------------------|------<12>---------15----------|
2|---------------------------------|----------<12>--------15-------|
3|---7-----------------------------|--------------<12>-------------|
4|-----------5---------------------|-------------------------------|
5|---------------------------------|-------------------------------|
6|---------------------------------|-------------------------------|

1|---------------------------------|------<12>---------15----------|
2|---------------------------------|----------<12>--------15-------|
3|---7-----------------------------|--------------<12>-------------|
4|-----------5---------------------|-------------------------------|
5|---------------------------------|-------------------------------|
6|---------------------------------|-------------------------------|

1|-----------------------------0---|-------------------------------|
2|---------------------------------|------0------------------------|
3|--7---7---5---3---5--------------|-------------------------------|
4|--5---5------------------2-------|-------------------------------|
5|----------------------3----------|-------------------------------|
6|---------------------------------|-------------------------------|
                                       In - to          the   …

1|---------------------------------|------<12>---------15----------|
2|---------------------------------|----------<12>--------15-------|
3|---7-----------------------------|--------------<12>-------------|
4|-----------5---------------------|-------------------------------|
5|---------------------------------|-------------------------------|
6|---------------------------------|-------------------------------|
    … Heart                                                Of  a …

1|---------------------------------|------<12>---------15----------|
2|---------------------------------|----------<12>--------15-------|
3|---7-----------------------------|--------------<12>-------------|
4|-----------5---------------------|-------------------------------|
5|---------------------------------|-------------------------------|
6|---------------------------------|-------------------------------|
   …Child                                           I   stay   a

1|-----------------------------0---|-------------------------------|
2|---------------------------------|------0------------------------|
3|--7---7---5---3---5--------------|-------------------------------|
4|--5---5------------------2-------|-------------------------------|
5|----------------------3----------|-------------------------------|
6|---------------------------------|-------------------------------|
  …While                                      In    to    the …

1|-10---------------------------10-|---------------------------10--|
2|---------8-------------8---------|----8--------------8-----------|
3|----------------7----------------|------------7------------------|
4|---------------------------------|-------------------------------|
5|---------------------------------|-------------------------------|
6|---------------------------------|-------------------------------|
       Heart…                                              of a…

1|-10---------------------------10-|---------------------------10--|
2|---------8-------------8---------|----8--------------8-----------|
3|----------------7----------------|------------7------------------|
4|---------------------------------|-------------------------------|
5|---------------------------------|-------------------------------|
6|---------------------------------|-------------------------------|
       Child…                                              I can …

1|-13--------------13------------13|------------13--------------13-|
2|---------11-------------11-------|----11--------------11---------|
3|---------------------------------|-------------------------------|
4|---------------------------------|-------------------------------|
5|---------------------------------|-------------------------------|
6|---------------------------------|-------------------------------|
       Smile…                                         I can go…

1|-15--------------15------------15|------------15--------------15-|
2|---------13-------------13-------|----13--------------13---------|
3|---------------------------------|-------------------------------|
4|---------------------------------|-------------------------------|
5|---------------------------------|-------------------------------|
6|---------------------------------|-------------------------------|
       there…                                         Into the…

1|-10---------------------------10-|---------------------------10--|
2|---------8-------------8---------|----8--------------8-----------|
3|----------------7----------------|------------7------------------|
4|---------------------------------|-------------------------------|
5|---------------------------------|-------------------------------|
6|---------------------------------|-------------------------------|
       Heart…                                            Into the…

1|-10---------------------------10-|---------------------------10--|
2|---------8-------------8---------|----8--------------8-----------|
3|----------------7----------------|------------7------------------|
4|---------------------------------|-------------------------------|
5|---------------------------------|-------------------------------|
6|---------------------------------|-------------------------------|
       Heart…             of a child…                     I can go…

1|-13--------------13------------13|------------13--------------13-|
2|---------11-------------11-------|----11--------------11---------|
3|---------------------------------|-------------------------------|
4|---------------------------------|-------------------------------|
5|---------------------------------|-------------------------------|
6|---------------------------------|-------------------------------|
       back…                                         I can stay…

1|-15--------------15------------15|------------15--------------15-|
2|---------13-------------13-------|----13--------------13---------|
3|---------------------------------|-------------------------------|
4|---------------------------------|-------------------------------|
5|---------------------------------|-------------------------------|
6|---------------------------------|-------------------------------|
       a while…                                      ‘To the…

I'm not completly sure on that riff, because there are many versions of the song. Just
your imagination. I like playing this riff here but it's a bit poor and repetitive, so if
knows wich is the right riff that Edge repeats at this part of the song, please make me 
and i will correct.
Anyways, as I said, try to make your own riff here.
                                                                     (x6)
1|---------------------------------|------<12>---------15----------|
2|---------------------------------|----------<12>--------15-------|
3|---7-----------------------------|--------------<12>-------------|
4|-----------5---------------------|-------------------------------|
5|---------------------------------|-------------------------------|
6|---------------------------------|-------------------------------|
      Heart…

1|---------------------------------|--x----------------------------|
2|---------------------------------|--0----------------------------|
3|--7---7---5---3---5--------------|--0------------0---------------|
4|--5---5------------------2-------|--2-----------------3----------|
5|----------------------3----------|--3----------------------2-----|
6|---------------------------------|--3----------------------------|


1|-------------------------------|--x----------------------------|
2|-------------------------------|--0----------------------------|
3|-------------------------------|--0-------------0--------------|
4|--4-5-4----------------5-------|--2------------------3---------|
5|--5--------------------5-------|--3----------------------2-----|
6|-------------------------------|--3----------------------------|

1|-------------------------------|--x--------------------------x-|
2|-------------------------------|--0-------------0------------x-|
3|-------------------------------|--0-----------------0--------x-|
4|--4-5-4----------------5-------|--2---------------------2----2-|
5|--5--------------------5-------|--3--------------------------3-|
6|-------------------------------|--3--------------------------3-|

1|-----------x-------------------|-------------------------------|
2|-----------0-------------------|-------------------------------|
3|-----------0-------------------|-------------------------------|
4|-------0---2-------------------|-------------------------------|
5|----2------3-------------------|-------------------------------|
6|-3---------3-------------------|-------------------------------|

That's all. It's a really easy song and one of my favourites solo's from Edge. If you
any problem or find a mistake, just tell me ( Ajove123@hotmail.com ). Have fun!
Tap to rate this tab
# A B C D E F G H I J K L M N O P Q R S T U V W X Y Z