Guitaretab - guitar tabs
Song name
# A B C D E F G H I J K L M N O P Q R S T U V W X Y Z
Home / U / U2 / 40 Live tab

U2 - 40 Live tab

U2  Vertigo Tour

"40"

Adam play this one. And he did a very good job. I love this sound!!!

Verse
    
"I waited patiently for the Lord...
             
e|---------------|
B|---------------|
G|---------------|
D|-------[7]-----| Repeat all over the verse
A|---[7]---------|
E|---------------|



Chorus

	How long?...To sing this song?

e|-------------------|---------------------|
B|-------------------|---------------------|
G|-------------------|---------------------|
D|---------7---------|-----------5---------| let ring
A|---------0---------|-----------7---------|
E|-------------------|---------------------|
[ Tab from: http://www.guitaretab.com/u/u2/77946.html ]
When Bono is lighting up the people on the stadium you play this:

e|--------------------------|----------------------|
B|--------------------------|----------------------|
G|--------------------------|----------------------|
D|-------7----7----77/9----|--7-----7-----7-----7-| ?X
A|-0---0----0----0-----------|-----0-----0-----0---|
E|--------------------------|----------------------|

Gently palm mutes the 0s on the A string.

e|-------------------|
B|-------------------|
G|-------------------|
D|---------7---------|Let it ring
A|---------0---------|
E|-------------------|

Tabs by Ricardo
Any doubts: ricardomatrix07@hotmail.com
Related for 40 Live tab