Song name
# A B C D E F G H I J K L M N O P Q R S T U V W X Y Z

U2 - Running To Stand Still Live tab

U2 - Running to Stand Still - Live from Sydney 1993
tabbed by Felix Kuegler

This is my first tab ever.

Capo 9th fret
Standard tuning
h=hammer on
p=pull off
s=slide

Intro

e--0-0-0---0---------0-----0----0-0-0---0---------0-----0-----0-----0-------|
B--0-2-2h3-2p0---0-----0-----0--0-2-2h3-2p0---0-----0-----0-----0-----0-----|
G--------------1---1-----1------------------2---2-----2-----2-----2---------|
D---------------------------------------------------------------------------|
A---------------------------------------------------------------------------|
E---------------------------------------------------------------------------|

Chorus (several times; listen to the song to figure out the number of times Edge is 
this chorus and how the speed of picking the strings is changing throughout this riff)

e--------0-----0-----0-----0---------0-----0-----0-----0--------------------|
B----0-----0-----0-----0-----0---0-----0-----0-----0-----0---0---repeat-----|
G--1---1-----1-----1-----1-----2---2-----2-----2-----2-----1---1------------|
D---------------------------------------------------------------------------|
A---------------------------------------------------------------------------|
E---------------------------------------------------------------------------|

Refrain

e----------2-------------0------------------2-------------0-----------------|
B------4-----4-------2-----2------------4-----4-------2-----2---------------|
G--------4-----4-------2-----2------------4-----4-------2-----2-------------|
D--2s4-----------4-2-----------2----2s4-----------4-2-----------2-----------|
A---------------------------------------------------------------------------|
E---------------------------------------------------------------------------|

After the refrain Edge repeats the intro as a bridge (listen to it!!!)

This is my favourite live version of this song!!!

Hope you like this tab; please send any comments to: felix_kuegler@hotmail.com
Thanx
Tap to rate this tab
# A B C D E F G H I J K L M N O P Q R S T U V W X Y Z