Song name
# A B C D E F G H I J K L M N O P Q R S T U V W X Y Z

Uaral - La Vaga Esperanza Del Ser tab

Hola a todos los usuarios de ULTIMATE GUITAR aquí les traigo esta Tab de una banda 
chilena de Metal/Doom espero que les guste :D
AGRADECIMIENTOS A:
FERNANDO ARROYO
CORREO ELECTRONICO: fergto78@facebook.com
YOUTUBE CHANNEL: http://www.youtube.com/fergto78
ULTIMATE GUITAR: Fergto78

( Uaral - La Vaga Esperanza Del Ser )

E|--------------------------------------------|
B|--------------------------------------------|
G|--------------------------------------------|
D|-----4-------4-------5-------5-------4------|
A|-----2-------3-------3-------3-------2------|
E|-0---0---0---0---0---0---0---0---0---0------|

E|---(3 tiempos)----|-------------|
B|------------------|-------------|
G|.--------0-------.|---------0---|
D|.----4-----4---4-.|-----4-------|
A|---2---2-----2----|---2---2-----|
E|-0----------------|-0-----------|

E|---(2 tiempos)----|-(2 tiempos)-------|
B|------------------|-------------------|
G|.--------0-------.|.--------0--------.|
D|.----4-----4---4-.|.----4-----4---4--.|
A|---2---2-----2----|---3---3-----3-----|
E|-0----------------|-0-----------------|

E|---(2 tiempos)----|-(2 tiempos)-------|
B|------------------|-------------------|
G|.--------0-------.|.--------5--------.|
D|.----4-----4---4-.|.----7-----7---7--.|
A|---2---2-----2----|---7---7-----7-----|
E|-0----------------|-5-----------------|

E|---(2 tiempos)----|-(2 tiempos)-------|
B|------------------|-------------------|
G|.--------0-------.|.--------0--------.|
D|.----4-----4---4-.|.----4-----4---4--.|
A|---2---2-----2----|---3---3-----3-----|
E|-0----------------|-0-----------------|

E|---(2 tiempos)----|-(2 tiempos)-------|-----|
B|------------------|-------------------|-----|
G|.--------0-------.|.--------5--------.|-----|
D|.----4-----4---4-.|.----7-----7---7--.|--7--|
A|---2---2-----2----|---7---7-----7-----|--7--|
E|-0----------------|-5-----------------|--5--|

Estos Acordes se tocan 4 tiempos:

Bm   C    Bm    Am




Cuando Empieza a cantar van estos Acordes ( Como un circulo :D )

Em   Bm    C    Bm


Y termina en Em


Dejen sus comentarios por cualquier duda o corrección :D gracias
Tap to rate this tab
# A B C D E F G H I J K L M N O P Q R S T U V W X Y Z