Ub40 - King tab

UB40-King
Live at  Rockpalast(1981)

Standard Tuning


Intro Solo
E-8-7-8-7---------------------------------------7-8-7--PD12-10---------------|
B---------10-8------8-10--8-10------------8-10-----------------13-12-10------|
G--------------10-10-----------10-9-9-10--------------------------------10---|
D----------------------------------------------------------------------------|
A----------------------------------------------------------------------------|
E----------------------------------------------------------------------------|

---------------------------------|
--------------10--12S13----------|
-------10-12---------------------|
-10-12---------------------------|
---------------------------------|
---------------------------------|
Pull up=P
Pull Down=D
Slide to=S

Feel the reggae with this easy lick :)
Tap to rate this tab
 
# A B C D E F G H I J K L M N O P Q R S T U V W X Y Z