Guitaretab - guitar tabs
Song name
# A B C D E F G H I J K L M N O P Q R S T U V W X Y Z

Ubiquitous Synergy Seeker - Hollowpoint Sniper Hyperbole tab

-------------------------------------------------------------------------------
           Hollowpoint Sniper Hyperbole  Ubiquitous Synergy Seeker
-------------------------------------------------------------------------------
Tabbed by:Zack_Ritch
Email:zack_ritch@hotmail.com
[ Tab from: http://www.guitaretab.com/u/ubiquitous-synergy-seeker/114283.html ]
Tuning: Down Half Step  Eb Ab Db Gb Bb Eb
         Am          F           C               G
eb|---x-x-0-x-x-0-x-x-1-x-x-1-x-x-8--x-x-8---x-x-3-x-x-3----------------------|
Bb|---x-x-1-x-x-1-x-x-1-x-x-1-x-x-8--x-x-8---x-x-3-x-x-3----------------------|
Gb|---x-x-2-x-x-2-x-x-2-x-x-2-x-x-9--x-x-9---x-x-4-x-x-4----------------------|
Db|---x-x-2-x-x-2-x-x-3-x-x-3-x-x-10-x-x-10--x-x-5-x-x-5----------------------|
Ab|---x-x-0-x-x-0-x-x-0-x-x-0-x-x----x-x-----x-x---x-x------------------------|
Eb|---------------------------------------------------------------------------|
Strumming Pattern 1: Down, Up, Down (SP1)
Strumming Pattern 2: Down, Up, Down, Up, Down, Up, Down, Up (SP2)
Picking Pattern (PP){Below}
   Am                F                 C                  G
eb|---------0-----------------1-----------------8------------------3----------|
Bb|---1-------1---------1---1---1---------8---8---8----------3---3---3--------|
Gb|-------2-------2-------2---------2-------9---------9--------4---------4----|
Db|-----2-------2-----3-----------3-----10----------10-----5-----------5------|
Ab|-0-------------------------------------------------------------------------|
Eb|---------------------------------------------------------------------------|
Bridge:
eb|---------------------------------------------------------------------------|
Bb|---------------------------------------------------------------------------|
Gb|-2-4-5--5-7-7/9--2-2/4/5--5-5-5-4b-5-4-2--2-4-5--5-5-5/7-7/9-10-12\0-------|
Db|---------------------------------------------------------------------------|
Ab|---------------------------------------------------------------------------|
Eb|---------------------------------------------------------------------------|


==================================================================================

(SP1)
 Am       F        C           G
Thoughts seem to stumble out of my mouth
Am       F        C           G
I cant seem to stop and talk to them
Am       F        C           G
Fear tries, to pierce the armour of truth
Am     F    C           G
Hollowpoint sniper hyperbole
(SP2)

(SP1)
I cant, seem
To follow a pendulum
And there must be organic cures for me
Report to base
Instrumental Case
Heres the map to my oubliette
(PP)/(SP2)

(SP1)
Once more,
Im flying with Brian my friend
Hold me,
(SP2)
Bonavista baby
Moose meat,
Neighboured a medley of beans
Screech me
(Pause until Is The By)
(SP1)
Is the by that built the boat
Is the by that sailed her
Is the by the sunk the ship
Youre the one that saves me,
(SP2)
With love

Bridge: See Top

(PP)
You make me flow
You help me to grow
You make me glow
You help me to know

(SP1)
Thoughts seem to stumble out of my mouth
I cant seem to stop and talk to them
Fear tries, to pierce the armour of truth
Hollowpoint sniper hyperbole

===============================================================================
| /  slide up
| \  slide down
| h  hammer-on
| p  pull-off
| ~  vibrato
| +  harmonic
| x  Mute note
===============================================================================


Related for Hollowpoint Sniper Hyperbole tab