Song name
# A B C D E F G H I J K L M N O P Q R S T U V W X Y Z

Udo Lindenberg - Wir Wollen Doch Einfach Nur Zusammen Sein tab

E|----------------------7h8-10--------8------|
B|--8--6-6----9--8-8-----------9p8-6---------|
G|-------------------------------------------|
D|-------------------------------------------|
A|-------------------------------------------|
E|-------------------------------------------|

E|--11-13-15-8--10---------------------------|
B|-----------------8-8---8p6----8--8-6-------|
G|---------------------------8---------8-7---|
D|-----------------------------------------9-|
A|-------------------------------------------|
E|-------------------------------------------|
Tap to rate this tab
# A B C D E F G H I J K L M N O P Q R S T U V W X Y Z