Song name
# A B C D E F G H I J K L M N O P Q R S T U V W X Y Z

Udora - My Pain tab

Band / Artist: Udora
Song title: My Pain
Album: Diesel

Original Tab: Luís Carlos Martino Jr (brazilian_grunge@hotmail.com)
Adjustment: ShAdY (shady.bnu@gmail.com)

Intro

Eb|------------2-2-2--------------2-0-----------------2-2-2----------------------|
Bb|-0--0--0--0-0------0--0--0-0-0-----0-0--0--0--0--0-0------0--0--0-------------|
F#|-4--x--0-----------4--x--0--------------4--x--0-----------4--x--0-------------|
C#|-4--4--0-----------4--4--0--------------4--4--0-----------4--4--0-------------|
G#|-2--4--x-----------2--4--x--------------2--4--x-----------2--4--x-------------|
EB|----2--3--------------2--3-----------------2--3--------------2--3-------------|


"Beneath a crown of flowers..."

Eb|----------2--2------------2-0--------2--2------------2-2----------------------|
Bb|-0--0--0--0--0--0--0--0-0-0----0--0--0--0--0--0--0-0-0------------------------|
F#|-4--x--0--0--0--4--x--0---0----4--x--0--0--4--x--0---0------------------------|
C#|-4--4--0--0--0--4--4--0--------4--4--0--0--4--4--0----------------------------|
G#|-2--4--x--x--x--2--4--x--------2--4--x--x--2--4--x----------------------------|
EB|----2--3--3--3-----2--3-----------2--3--3-----2--3----------------------------|


"I feel..."

Eb|-0--0--0--0--0--0--0--0-------------------------------------------------------|
Bb|-x--0--0--0--x--0--0--0-------------------------------------------------------|
F#|-4--x--x--x--4--x--x--x-------------------------------------------------------|
C#|-4--4--5--5--4--4--5--5-------------------------------------------------------|
G#|-2--4--5--5--2--4--5--5-------------------------------------------------------|
EB|----2--3--3-----2--3--3-------------------------------------------------------|


"'Been waiting, wasting so much time..."

Eb|-0--0--0--0--0--0--0--0--0--0--0--0--0--0-------------------------------------|
Bb|-0--0--0--0--0--0--0--0--0--0--0--0--0--0-------------------------------------|
F#|-x--x--x--x--x--x--x--x--x--x--x--x--x--x-------------------------------------|
C#|-6--6--4--4--6--6--4--4--4--4--4--3--3--3-------------------------------------|
G#|-6--6--4--4--6--6--4--4--2--2--2--1--1--1-------------------------------------|
EB|-4--4--2--2--4--4--2--2-------------------------------------------------------|


"So please, Sympathize with my pain..."

Eb|-0--3--0--0--0--0--0---0--3--0--0--0--0--0------------------------------------|
Bb|-0--3--x--0--0--0--0---0--3--x--0--0--0--0------------------------------------|
F#|-x--0--6--6--5--x--x---x--0--6--6--5--x--x------------------------------------|
C#|-2--0--6--6--5--3--2---2--0--6--6--5--3--2------------------------------------|
G#|-2--x--4--4--3--3--2---2--x--4--4--3--3--2------------------------------------|
EB|-0--3-----------1--0---0--3-----------1--0------------------------------------|


"Through the holes in my walls..."

Eb|----------2--2------------2-0--------2--2------------2-2----------------------|
Bb|-0--0--0--0--0--0--0--0-0-0----0--0--0--0--0--0--0-0-0------------------------|
F#|-4--x--0--0--0--4--x--0---0----4--x--0--0--4--x--0---0------------------------|
C#|-4--4--0--0--0--4--4--0--------4--4--0--0--4--4--0----------------------------|
G#|-2--4--x--x--x--2--4--x--------2--4--x--x--2--4--x----------------------------|
EB|----2--3--3--3-----2--3-----------2--3--3-----2--3----------------------------|


"I feel..."

Eb|-0--0--0--0--0--0--0--0-------------------------------------------------------|
Bb|-x--0--0--0--x--0--0--0-------------------------------------------------------|
F#|-4--x--x--x--4--x--x--x-------------------------------------------------------|
C#|-4--4--5--5--4--4--5--5-------------------------------------------------------|
G#|-2--4--5--5--2--4--5--5-------------------------------------------------------|
EB|----2--3--3-----2--3--3-------------------------------------------------------|


"I know I could be purified..."

Eb|-0--0--0--0--0--0--0--0--0--0--0--0--0--0-------------------------------------|
Bb|-0--0--0--0--0--0--0--0--0--0--0--0--0--0-------------------------------------|
F#|-x--x--x--x--x--x--x--x--x--x--x--x--x--x-------------------------------------|
C#|-6--6--4--4--6--6--4--4--4--4--4--3--3--3-------------------------------------|
G#|-6--6--4--4--6--6--4--4--2--2--2--1--1--1-------------------------------------|
EB|-4--4--2--2--4--4--2--2-------------------------------------------------------|


"So please, Sympathize with my pain..."

Eb|-0--3--0--0--0--0--0---0--3--0--0--0--0--0------------------------------------|
Bb|-0--3--x--0--0--0--0---0--3--x--0--0--0--0------------------------------------|
F#|-x--0--6--6--5--x--x---x--0--6--6--5--x--x------------------------------------|
C#|-2--0--6--6--5--3--2---2--0--6--6--5--3--2------------------------------------|
G#|-2--x--4--4--3--3--2---2--x--4--4--3--3--2------------------------------------|
EB|-0--3-----------1--0---0--3-----------1--0------------------------------------|


"And realize, realize who I could have been..."

Eb|-0--3--0--0--0--0--0----------------------------------------------------------|
Bb|-0--3--x--0--0--0--0----------------------------------------------------------|
F#|-x--0--6--6--5--7--9----------------------------------------------------------|
C#|-2--0--6--6--5--7--9----------------------------------------------------------|
G#|-2--x--4--4--3--5--7----------------------------------------------------------|
EB|-0--3-------------------------------------------------------------------------|


"You and everybody taught me to fit..."

Eb|-0--3--0--0--0--0--0---0--3--0--0--0--0---------------------------------------|
Bb|-0--3--0--0--0--0--0---0--3--0--0--0--0---------------------------------------|
F#|-x--0--x--x--x--x--x---x--0--x--x--x--x---------------------------------------|
C#|-2--0--6--6--7--9--3---2--0--4--7--3--2---------------------------------------|
G#|-2--x--6--6--7--9--3---2--x--4--7--3--2---------------------------------------|
EB|-0--3--4--4--5--7--1---0--3--2--5--1--0---------------------------------------|


Eb|-------------------------------0---0---0---0-----|-x--------------------------|
Bb|-------------------------------x---x---x---x-----|-x--------------------------|
F#|-------------------------------4---4---4---4-----|-x--------------------------|
C#|-------------------------------x---x---x---x-----|-x--------------------------|
G#|-------2-2-2-2-2-2-2-2-2-------2-2-2-2-2-2-2-2-2-|-x--2-2-2-------------------|
EB|-4*-4*-0-0-3-3-0-0-3-0-3-4*-4*-0-0-3-3-0-0-3-0-3-|-x--3-3-3-------------------|


Eb|-0--0--0--x-x-x-x--0--0---0--0--0---0--0---0--0--0--0--0--0-------------------|
Bb|-0--0--0--x-x-x-x--0--0---0--0--0---0--0---0--0--0--0--0--0-------------------|
F#|-x--x--x--x-x-x-x--x--x---x--x--x---x--x---x--x--x--x--x--x-------------------|
C#|-6--6--6--x-x-x-x--4--4---6--6--6---4--4---4--4--4--3--3--3-------------------|
G#|-6--6--6--x-x-x-x--4--4---6--6--6---4--4---2--2--2--1--1--1-------------------|
EB|-4--4--4--x-x-x-x--2--2---4--4--4---2--2--------------------------------------|


"Sympathize, yeah, with my pain..."

Eb|------0--0---0--3--0--0--0--0--0----------------------------------------------|
Bb|------0--0---0--3--x--0--x--0--0----------------------------------------------|
F#|------x--x---x--0--6--6--5--7--9----------------------------------------------|
C#|-6-5--3--2---2--0--6--6--5--7--9----------------------------------------------|
G#|-4-3--3--2---2--x--4--4--3--5--7----------------------------------------------|
EB|------1--0---0--3-------------------------------------------------------------|


"You and everybody taught me to fit..."

Eb|-0--3--0--0--0--0--0--0--0----------------------------------------------------|
Bb|-0--3--0--0--0--0--0--0--0----------------------------------------------------|
F#|-x--0--x--x--x--x--x--x--x----------------------------------------------------|
C#|-2--0--6--6--7--9--3--3--3----------------------------------------------------|
G#|-2--x--6--6--7--9--3--3--3----------------------------------------------------|
EB|-0--3--4--4--5--7--1--1--1----------------------------------------------------|


"My pain..."

Eb|-0--3--0--0--0--0---0--3--0-----------------0---------------------------------|
Bb|-0--3--0--0--0--0---0--3--0-----------------0---------------------------------|
F#|-x--0--x--x--x--x---x--0--x-----------------x---------------------------------|
C#|-2--0--4--7--3--2---2--0--4-----------------3---------------------------------|
G#|-2--x--4--7--3--2---2--x--4-----------------3---------------------------------|
EB|-0--3--2--5--1--0---0--3--2-----------------1---------------------------------|
Tap to rate this tab
 
# A B C D E F G H I J K L M N O P Q R S T U V W X Y Z