Song name
# A B C D E F G H I J K L M N O P Q R S T U V W X Y Z

Ufo Og Yepha - Op Med Haret tab

Jeg hørte Ufo og Yepha's nye nummer "Op med Håret" i radion og tænkte om man ikke
kunne finde tabs til det guitar/bass spil i baggrunden der bygger hele sangen op.
Det kunne man ikke! Så valgte jeg hurtigt selv at lytte den af. Her har i det bedste
jeg kunne komme op med. :) Timingen er lidt svær at få med tab når man ikke kan noder
og det shit så i må prøve at spille med på sangen samtidigt. God fornøjelse! :D

Intro/Verse/Omkvæd:

e|----------------------------------|
B|----------------------------------|
G|----------------------------------|
D|-------9-9-------9------5-5--4-4--|
A|--7-7-------7-7-----7\--3-3--2-2--|
E|----------------------------------|

e|---------------------------------------------|
B|---------------------------------------------|
G|---------------------------------------------|
D|-------9-9-------9------12-12--11-11--10-10--|
A|--7-7-------7-7-----7/--10-10--9--9---8--8---|
E|---------------------------------------------| 
Dette er grundrytmen som hele sangen kører i.

En fed sang, håber i kunne bruge min tab :)
Frederik Thaysen.

http://www.ufoyepha.dk/forside/
Tap to rate this tab
 
# A B C D E F G H I J K L M N O P Q R S T U V W X Y Z