Song name
# A B C D E F G H I J K L M N O P Q R S T U V W X Y Z

Ufo - Rock Bottom Live tab

			     Rockbottom SITN - UFO
Tabbed by:
Email:

Tuning:

e|------------------------------------------------------------------------|
B|------------------------x-x-x-x-x-x-5-----------------------------------|
G|--------------------------------------x-x-x-x-x-x7-x-x-x-x-x-x6-x-x-x-x-|
D|-----------------9--4---------------------------------------------------|
A|----7-7-7-7/9-10--------------------------------------------------------|
E|------------------------------------------------------------------------|

e|------------------------------------------------------------------------|
B|-----------------------------------------8-7-8----10-7------------------|
G|--x-x-7--6h-7h-9-6h-7h-9-6---6h-7h-9-----------7--------7-6-------------|
D|------------------------------------------------------------7--9--------|
A|------------------------------------------------------------------7\-4--|
E|------------------------------------------------------------------------|

e|-------------------------------------------------------------------------|
B|-------------------------------------------------------------------------|
G|-------------------------------------7-----------------------------------|
D|-----------------------------5-7-7/9---9p-7p-5p--7b-7b-5h-7b-------------|
A|---4-7-----7-7-5\4-------4-7---------------------------------------------|
E|--------5----------------------------------------------------------------|

Sorry running out of time so im posting it so i dont loose it and i will finish 
in the next few days

| /  slide up
| \  slide down
| h  hammer-on
| p  pull-off
| ~  vibrato
| +  harmonic
| x  Mute note
===============================================================================
Tap to rate this tab
# A B C D E F G H I J K L M N O P Q R S T U V W X Y Z