Ufo - World Cruise tab

----------------------------------------------------------------------------
			     World Cruise INTRO - UFO
----------------------------------------------------------------------------
Tabbed by: iKjetil
Email:

Tuning: e B G D A E

e|-------------------------------------------------------------------------|
B|-------------------------------------------------------------------------|
G|-------0---0---0---0-----0-----0-----0---------0-------------------------|
D|-3-/-5---3---0---------0-----0-----0---------3---------------------------|
A|-----------------3---1-----3-----1-----1-/-3-----------------------------|
E|-------------------------------------------------------------------------|

e|-------------------------------------------------------------------------|
B|-------------------------------------------------------------------------|
G|---0---0---0---0---0---0---0---0-0-0-------------------------------------|
D|-5---3---0---------0---0---0---0-0-0-------------------------------------|
A|-------------3---3---4---3---1-------------------------------------------|
E|---------------------------------3---------------------------------------|

e|-------------------------------------------------------------------------|
B|-------------------------------------------------------------------------|
G|-------0---0---0---0-----0-----0-----0---------0-------------------------|
D|-3-/-5---3---0---------0-----0-----0---------3---------------------------|
A|-----------------3---1-----3-----1-----1-/-3-----------------------------|
E|-------------------------------------------------------------------------|

e|-------------------------------------------------------------------------|
B|-------------------------------------------------------------------------|
G|---0---0-----0-----0-----0-0-0-------------------------------------------|
D|-5---3-----3-----3-----3---0-0-------------------------------------------|
A|---------5-----4-----3-----1---------------------------------------------|
E|-----------------------------3-------------------------------------------|


************************************

| /   slide up
| \   slide down
| h   hammer-on
| p   pull-off
| ~   vibrato
| +   harmonic
| x   Mute note
| b   Bend
| pb  Pre-bend
| br  Bend release
| pbr Pre-bend release
| brb Bend release bend

************************************
Tap to rate this tab
 
# A B C D E F G H I J K L M N O P Q R S T U V W X Y Z