Song name
# A B C D E F G H I J K L M N O P Q R S T U V W X Y Z

Ufo - Crystal Light tab

Artist: UFO
Song: Crystal Light
Album: Phenomenon

Intro:
E-------------------------------|
B-------------------------------|
G----0-------0-------0----------|
D---2-------0-------0-0---------|x3
A--3----3--2----2--1---1--------|
E-------------------------------|

Then..
E----------------------------|
B----------------------------|
G----0-------0-------0----2--|
D---2-------0-------2----2---|
A--3----3--2----2--3----0----|
E----------------------------|

Verse 1:
E-------------------0------------------|
B----3----3------3-------0---2h3-------|
G---2-2--------2--------0-0------------|
D--0-----------------------------------|
A---------4---------2--------------2\4-|
E--------------------------------------|

E------2-2--2p0---------|
B---------------3--3p0--|
G---2-------------------|
D--0--------------------|
A-----------4------2----|
E-----------------------|

Verse 1:
Standin' by the roadside, views are in my hand
Coat I'm wearing’s blowin cold
Turn my back to the wind

Winter mists along the coast
City lights close down
Your empty station there
Train line cuts the ground
Train line cuts the ground

Repeat beginning of first verse

E-----1-1----1p0-----------3p2-0h2---|
B-----------------3----3-------------|
G---------------------2-2------------|
D---0----------------0---------------|
A--1---------3-----------------------|
E------------------------------------|

Repeat whole verse 1 rhythm

Strum D once

Chorus:
Dsus  D
Crystal light shinin' bright
                  C
Shine on down for me
              D                    Em
Good is even passin' by, dying not received
         Dsus                C
Like a fool I hit that road, took my time to see
               
Life was only foolin' there

E--0---2---0---2---0---0-----0---2---3---2---0--|
B--0---3---3---3---1---1-----0---3---3---3---0--|
G--0---2---2---2---0---0-----0---2---2---2---0--|
D--2---0---0---0---2---0h2---2---0---0---0---2--|
A--2---x---x---x---3---3-----3---x---x---x---2--|
E--0---x---x---x---x---x-----x---x---x---x---0--|

At end of chorus: Asus4 strum down 
E--------------|
B----3---3p2---|
G---2----------|
D--2-----------|
A--------------|
E--------------|

Verse 2:
D                  
Locust Berry burns my love, find it hard to breathe
The hospital shut their gates, I can't get me no peace
Weaker people stand and scream, stumble in the road
Close my eyes, turn off the lights
Timeless, found a dream, timeless found a dream
Tap to rate this tab
 
# A B C D E F G H I J K L M N O P Q R S T U V W X Y Z