Song name
# A B C D E F G H I J K L M N O P Q R S T U V W X Y Z

Ufo - Too Much Of Nothing tab

Too Much of Nothing
By UFO (force It)

Submitted by Ricky (rickyleo4@yahoo.com)


Intro/verse

e-------------------------------------------------------|
B-------------------------------------------------------|
G------9----------9\5--5----------5/9--9----------------|
D------9----------9\5--5----------5/9--9----------------|
A------7----------7\3--3----------3/7--7----------------|
E-------------------------------------------------------|

Chorus

"but the whole world keeps on turn'n"

e-------------------------------------------------------|
B-------------------------------------------------------|
G--------5------------7--------9------------------------|
D--------5------------7--------9------------------------|
A--------3------------5--------7------------------------|
E-------------------------------------------------------|

Thats all I got so far, I'm still try'n to figure out the interlude.
Tap to rate this tab
# A B C D E F G H I J K L M N O P Q R S T U V W X Y Z