Song name
# A B C D E F G H I J K L M N O P Q R S T U V W X Y Z

Ufo - Love To Love tab

First of all you should listen to the song while you play it, it's much more easy then. 
name is Christian, i got this from listening to the song while trying to figure out the 
and it checks up pretty good. enjoy!


This is the part when Michael plays on an aucoustic guitar in the begining and end of 
song. First played in the song after 1 minute and 42 seconds

---------------------------------------------------------------------------|
---------------------------------------------------------------------------|
-----9-9---7-9-11-7-9---14-11-12---12-11-7-9-9-----------------------------|
-----9-9---7-9-11-7-9---14-11-12---12-11-7-9-9-----------------------------|
-----7-7---5-7-9--5-7---12-9--10---10-9--5-7-7---repeat 4 times------------|
---------------------------------------------------------------------------|

This is a little solo played by Michael about 4 minutes and 10 seconds into the song. A 
after the first verse

---------------------------------------------------------------------|
-----8--8-7-----------------------8-10-8-7---------------------------|
------------7------------------------------7-------------------------|
--------------7-7--7-5-7-9-------------------7--7-9-7-5-4-5----------|
------------------------------------------------------------7--------|
---------------------------------------------------------------------|

---------------------------------------------------------------------|
-----8--8-7-----------------------8-10-8-7---------------------------|
------------7------------------------------7-------------------------|
--------------7-7--7-5-7-9-------------------7--7-9------------------|
----------------------------------------------------7----------------|
---------------------------------------------------------------------|
Tap to rate this tab
 
# A B C D E F G H I J K L M N O P Q R S T U V W X Y Z