Song name
# A B C D E F G H I J K L M N O P Q R S T U V W X Y Z

Ufo - Too Hot To Handle tab

I noticed there wasn't a tab (aside from those lame chords that didn't even fit to the 
for this great song by UFO. Heres my try on it.

You have to listen to the song for the rhythm and where the palm muting goes.

 Intro/verse (X4)
E|----------------------------------------------------------------------|
B|-----10p9-----3p2------------------10p9-------------------------------|
G|-999-9--------2---777---------999--9----------------------------------|
D|-999-9----777-2---777---------777--9----------------------------------|
A|-777------777-----555---------777-------------------------------------|
E|----------555---------3b4-0-------------------------------------------|

Chorus   (x2)
E|----------------------------------------------------------------------|
B|----------------------------------------------------------------------|
G|-9-99-99-----------------------9-99-99--------------------------------|
D|-9-99-99--7---7-------7--7---9-9-99-99--------------------------------|
A|-7-77-77--7---7-------7--7---9-7-77-77--------------------------------|
E|----------5-0-5-0-3p0-5--5-0/7----------------------------------------|

 Intro/verse (X2)
E|----------------------------------------------------------------------|
B|-----10p9-----3p2------------------10p9-------------------------------|
G|-999-9--------2---777---------999--9----------------------------------|
D|-999-9----777-2---777---------777--9----------------------------------|
A|-777------777-----555---------777-------------------------------------|
E|----------555---------3b4-0-------------------------------------------|

 Bridge (x1)
E|----------------------------------------------------------------------|
B|------------------------------3p2-------------------------------------|
G|-4444-2-77-7-222--4444-2------2---4444-2-7-7-7------------------------|
D|-4444-2-77-7-222--4444-2-5-7--2---4444-2-7-7-7-7-5-7------------------|
A|-2222-0-55-5-000--2222-0-5-7------2222-0-5-5-5-7-5-7------------------|
E|-------------------------3-5-------------------5-3-5------------------|

Solo (X1) I will place in later.


Bridge (again x3)
E|----------------------------------------------------------------------|
B|------------------------------3p2-------------------------------------|
G|-4444-2-77-7-222--4444-2------2---4444-2-7-7-7------------------------|
D|-4444-2-77-7-222--4444-2-5-7--2---4444-2-7-7-7-7-5-7------------------|
A|-2222-0-55-5-000--2222-0-5-7------2222-0-5-5-5-7-5-7------------------|
E|-------------------------3-5-------------------5-3-5------------------|

Thing (x4)
E|----------------------------------------------------------------------|
B|----------------------------------------------------------------------|
G|----------------------------------------------------------------------|
D|-99/11----------------------------------------------------------------|
A|-99/11----------------------------------------------------------------|
E|-77/9-----------------------------------------------------------------|

 Intro/verse (X2)
E|----------------------------------------------------------------------|
B|-----10p9-----3p2------------------10p9-------------------------------|
G|-999-9--------2---777---------999--9----------------------------------|
D|-999-9----777-2---777---------777--9----------------------------------|
A|-777------777-----555---------777-------------------------------------|
E|----------555---------3b4-0-------------------------------------------|

Chorus/ending  (x8)
E|----------------------------------------------------------------------|
B|----------------------------------------------------------------------|
G|-9-99-99-----------------------9-99-99--------------------------------|
D|-9-99-99--7---7-------7--7---9-9-99-99--------------------------------|
A|-7-77-77--7---7-------7--7---9-7-77-77--------------------------------|
E|----------5-0-5-0-3p0-5--5-0/7----------------------------------------|

I will post the ending solo above the chorus later.

Hope this helps and don't forget to listen for the variation on the verse.
B|-----10p9--|
G|-----9-----|
D|-----9-----|
Tap to rate this tab
# A B C D E F G H I J K L M N O P Q R S T U V W X Y Z