Song name
# A B C D E F G H I J K L M N O P Q R S T U V W X Y Z

Ufo - Give Her The Gun tab

Help us improve GuitareTab! Take a short survey!
Palm Mute
e|-------------------------|-------------------------|
B|-------------------------|-------------------------|
G|-------------------------|-------------------------|
D|-------------------------|-------------------------|
A|-0-3-7-0-3-7-0-3-7-0-3-7-|-0-4-8-0-4-8-0-4-8-0-4-8-| 
E|-------------------------|-------------------------| 
                                                       x2
e|-------------------------|-------------------------|
B|-------------------------|-------------------------|
G|-------------------------|-------------------------|
D|-------------------------|-------------------------|
A|-0-5-9-0-5-9-0-5-9-0-5-9-|-0-4-8-0-4-8-0-4-8-0-4-8-|
E|-------------------------|-------------------------|


Now Don't Palm Mute
e|-------------------------|-------------------------|
B|-------------------------|-------------------------|
G|-------------------------|-------------------------|
D|-------------------------|-------------------------|
A|-0-3-7-0-3-7-0-3-7-0-3-7-|-0-4-8-0-4-8-0-4-8-0-4-8-| 
E|-------------------------|-------------------------| 
                                                       
e|-------------------------|-------------------------|
B|-------------------------|-------------------------|
G|-------------------------|-------------------------|
D|-------------------------|-------------------------|
A|-0-5-9-0-5-9-0-5-9-0-5-9-|-0-4-8-0-4-8-0-4-8-0-4-8-|
E|-------------------------|-------------------------|

That's it. It sounds right to me.




Related for Give Her The Gun tab