Song name
# A B C D E F G H I J K L M N O P Q R S T U V W X Y Z

Ufo - Makin Moves tab

Help us improve GuitareTab! Take a short survey!
e|-----------------------------------0--------------------------0----------|
B|----1-1------3--3-------3-3-------0-0------------------------3-3-------1-|
G|---0---0------2--2-----3---3-----2---2-----0-0-------0-0----2---2-----0--|
D|--2-----2--0---0--0---3-----3---2-----2---0---0-----3---3--0-----0---2---|
A|-3-------3---------0-1-------1-0---------1-----1---3-----3--------0-3----|
E|----------------------------------------3-------3-1-------1--------------|

e|-----------------------------0--------------------------0-----3----------|
B|-1-----3--3-------3-3-------0-0------------------------3-3----3----------|
G|--0-----2--2-----3---3-----2---2-----0-0-------0-0----2---2---0----------|
D|---2--0--0--0---3-----3---2-----2---0---0-----3---3--0-----0--2----------|
A|----3--------0-1-------1-0---------1-----1---3-----3--------0-3----------|
E|----------------------------------3-------3-1-------1--------------------|
Related for Makin Moves tab