Guitaretab - guitar tabs
Song name
# A B C D E F G H I J K L M N O P Q R S T U V W X Y Z

Ugly Casanova - Parasites tab

Tabbed by:CMM
Email:colin_michael_muppet@hotmail.com

Tuning:Standard

(Acoustic guitar)(Backbone of whole song)
e|--------------------------------------------------------------------|
B|--------------------------------------------------------------------|
G|-5--5--5--5-5--5/12--12--12--12-12--7--7--7--7-7--7\5--5--5--5-5----|
D|-5--5--5--5-5--5/12--12--12--12-12--7--7--7--7-7--7\5--5--5--5-5----|
A|-3--3--3--3-3--3/10--10--10--10-10--5--5--5--5-5--5\3--3--3--3-3----|
E|--------------------------------------------------------------------|

(Overdriven Electric guitar) (starting notably at 0:25)
e|------------------------------------------------------------|
B|------------------------------------------------------------|
G|-5--5------------12--12-------------7--7------------5--5----|
D|-5--5------------12--12-------------7--7------------5--5----|
A|-3--3------------10--10-------------5--5------------3--3----|
E|------------------------------------------------------------|
[ Tab from: http://www.guitaretab.com/u/ugly-casanova/52492.html ]
(Small Interlude) (played at 1:08)
e|--------------------------------------------|
B|-8\7----------------------------------------|
G|-----7\4-4----------7--7--7-4--4-5----------|
D|-----------7\5------------------------------|
A|--------------------------------------------|
E|--------------------------------------------|

(Outro) (played at 2:17)
e|--------------------------------------------|
B|-8\7----------------------------------------|
G|-----4/7-7----4\2--2--0-----------5/7-------|
D|--------------------------------------------|
A|--------------------------------------------|
E|--------------------------------------------|

NOTE: This part played really slowly on, truth be told, I doubt is a guitar.
But here is it tabbed anyways.

Song notes: 
- Throughout the entire song a G is played continuously which can be easily
(and obviously) played by just continuously picking the G string. 
- Horn section plays G GG G D G G        D G G
- Near the end of the song another G (an octave higher) is played with a different
rhythm in the background.

| /  slide up
| \  slide down
===============================================================================
Related for Parasites tab
Parasites chords by Ugly Casanova