Guitaretab - guitar tabs
Song name
# A B C D E F G H I J K L M N O P Q R S T U V W X Y Z

Ugly Casanova - Sharpen Your Teeth tab

----------------------------Sharpen Your Teeth------------------------------

Tabbed by:CMM
Email:colin_michael_muppet@hotmail.com

Barnacles
Spilled Milk Factory
Parasites
Hotcha Girls
No Song
Diamonds on the Face of Evil
Cat Faces
Ice on the Sheets
Beesting
Pacifico
Smoke Like Ribbons
Things I Don't Remember
So Long to the Holidays

/  = Slide up
\  = Slide down
h  = Hammer on
p  = Pull off
PM = Palm mute
x  = Dead Note/Pick scratch

---------------------------------Barnacles----------------------------------

Tuning: Standard

(Main Guitar)
e|----------------------------------------------------------------------|
B|----------------------------------------------------------------------|
G|-7--7--7--7--7--7--7/9------------------------------------------------|
D|-5--5--5--5--5--5--5----7--7--7--7--7--7--7/9--4--4--4--4-4--7-4--5-4-|
A|-7--7--7--7--7--7--7----5--5--5--5--5--5--5----5--5--5--5-5--5-5--5-5-|
E|------------------------7--7--7--7--7--7--7---------------------------|

e|--------------------------|
B|-------------3p0-0--------|
G|-------------------3p0-0--|
D|-2--2--2--2---------------|
A|-3--3--3--3---------------|
E|--------------------------|

(Second Guitar Intro)
e|--3p2-------3p2---------------3p2----------------------------------------|
B|------3---------3-----------------3--3--3/5----------5-7-5---7--/10------|
G|-------------------------------------------------------------------------|
D|-------------------------------------------------------------------------|
A|-------------------------------------------------------------------------|
E|-------------------------------------------------------------------------|

(Second Guitar Fill)
e|-5--5--5-5--7--5---------|
B|------------------7--5---|
G|-------------------------|
D|-------------------------|
A|-------------------------|
E|-------------------------|
  PM.....................

(First Guitar Outro)
e|--------------------------------------------------------------|
B|-8p7-------/7--5-----8p7--------------------8-----------------|
G|-----7\4-----------------7---7--7---7----------9--7--9-7--9-7-|
D|----------------------------------9---9-----------------------|
A|--------------------------------------------------------------|
E|--------------------------------------------------------------|


--------------------------Spilled Milk Factory------------------------------

Tuning: Standard

(Wah-Wah Chord)
e|------|
B|--1---|
G|--1---|
D|--1---|
A|------|
E|------|

NOTE: With lots of pick scratchs and varrying rhythm.

(Banjo Fill)
e|---------------------|
B|---------------------|
G|-2-2h3--3h5p3-2-0----|
D|------------------3--|
A|---------------------|
E|---------------------|

(Fill One)
e|---------------|
B|----11-11--9-9-|
G|-10------------|
D|---------------|
A|---------------|
E|---------------|

(Fill Two)
e|--4---4---|
B|--4---4---|
G|----------|
D|----------|
A|----------|
E|----------|

---------------------------------Parasites----------------------------------

Tuning: Standard

Acoustic guitar)
e|--------------------------------------------------------------------|
B|--------------------------------------------------------------------|
G|-5--5--5--5-5--5/12--12--12--12-12--7--7--7--7-7--7\5--5--5--5-5----|
D|-5--5--5--5-5--5/12--12--12--12-12--7--7--7--7-7--7\5--5--5--5-5----|
A|-3--3--3--3-3--3/10--10--10--10-10--5--5--5--5-5--5\3--3--3--3-3----|
E|--------------------------------------------------------------------|

(Overdriven Electric guitar) 
e|------------------------------------------------------------|
B|------------------------------------------------------------|
G|-5--5------------12--12-------------7--7------------5--5----|
D|-5--5------------12--12-------------7--7------------5--5----|
A|-3--3------------10--10-------------5--5------------3--3----|
E|------------------------------------------------------------|

(Played throughout song)
e|-------------------------|
B|-------------------------|
G|-0-0-0-0-0-0-0-0-0-0-0-0-|
D|-------------------------|
A|-------------------------|
E|-------------------------|

(Small Interlude) 
e|--------------------------------------------|
B|-8\7----------------------------------------|
G|-----7\4-4----------7--7--7-4--4-5----------|
D|-----------7\5------------------------------|
A|--------------------------------------------|
E|--------------------------------------------|

(Outro) 
e|--------------------------------------------|
B|-8\7----------------------------------------|
G|-----4/7-7----4\2--2--0-----------5/7-------|
D|--------------------------------------------|
A|--------------------------------------------|
E|--------------------------------------------|


------------------------------Hotcha Girls----------------------------------

Tuning: Standard

(Verse)
e|------------------------------------------------------------------|
B|------------------------------------------------------------------|
G|---5-----5-----5------5-----5-------0-----0-----0------0-----0----|
D|-----3-----3------3-----3-----3-------2-----2------2-----2-----2--|
A|-5-----5-----5------5-----5-------3-----3-----3------3-----3------|
E|------------------------------------------------------------------|

(Chorus)
e|---3---2-------------------3---2---------------|
B|-----------3---0---3-0-------------3---0---3-0-|
G|-----------------------------------------------|
D|-----------------------------------------------|
A|-----------------------------------------------|
E|-3---3---3---3---3-------3---3---3---3---3-----|

e|---3---2-------------------3---2---------------|
B|-----------3---0----3-0------------3---0---3-0-|
G|-----------------------------------------------|
D|-----------------------------------------------|
A|-3---3---3---3---3-------3---3---3---3---3-----|
E|-----------------------------------------------|

(Interlude)
e|-------------------------|
B|-8-------5---------------|
G|-----------------4-------|
D|-------------------------|
A|-------------------------|
E|-------------------------|

---------------------------------No Song------------------------------------

No Song.

---------------------Diamonds on the Face of Evil---------------------------

Tuning: Standard
[ Tab from: http://www.guitaretab.com/u/ugly-casanova/59007.html ]
(Main Riff)
e|--12--0-----------------------0--------12--0-------------------------|
B|---------12--12-------10---8------------------12--0-------10---8--0--|
G|--------------------9----9------------------------------9----9-------|
D|---------------------------------------------------------------------|
A|----------0---0--------------------------------0--0------------------|
E|---0--0-----------8---------------------0--0----------8--------------|

(Main Riff Variation)
e|-------------------------------------|
B|---------12--12--10------10---8--5---|
G|----------------------9-----9--------|
D|-12--14------------------------------|
A|----------0---0----------------------|
E|--0---0-----------8------------------|

(Clarinet)
e|-----------------------------------------------|
B|-----------------------------------------------|
G|-----------------------------------------------|
D|-9/12\10---9/10\9/10\9\7--------5/7\5/7\5------|
A|------------------------------------------7----|
E|-----------------------------------------------|


----------------------------------Cat Faces---------------------------------

Tuning: Standard

(Whole Song)
e|-0-----0---------------0----0-0----3----3---3-3--3-|
B|-1-----1---------------1----1-1----3----3---3-3--3-|
G|-2-----2--2-2--0-0-----0----0-0----0----0---0-0--0-|
D|-2--2--2------------2--2----2-2----0----0---0-0--0-|
A|-----------------------3----3-3----2----2---2-2--2-|
E|-----------------------------------3----3---3-3--3-|

(Background Slide Line)
e|------------------------------------|
B|-8\-----------5/---------------/12--|
G|------------------------------------|
D|------------------------------------|
A|------------------------------------|
E|------------------------------------|


----------------------------Ice on the Sheets-------------------------------

Tuning: Standard

(Rhythm Guitar)
e|------------------------------------------------------------------------|
B|-------5--x-x--------5--x-x--------5--x-x--------5--x-x--------3--x-x---|
G|-------5--x-x--------5--x-x--------5--x-x--------5--x-x--------3--x-x---|
D|-7--7--5--x-x--7--7--5--x-x--7--7--5--x-x--7--7--5--x-x--5--5--3--x-x---|
A|------------------------------------------------------------------------|
E|------------------------------------------------------------------------|

e|--------------------------------------------|
B|-------3--x-x--------3--x-x--------3--x-x---|
G|-------3--x-x--------3--x-x--------3--x-x---|
D|-5--5--3--x-x--5--5--3--x-x--5--5--3--x-x---|
A|--------------------------------------------|
E|--------------------------------------------|

(Fill One)
e|------------------------------|
B|-8--10----7--8----------------|
G|-----------------7p5\4h5p4----|
D|------------------------------|
A|------------------------------|
E|------------------------------|

(Wah-Wah Fill)
e|----------------------------------------|
B|----------------------------------------|
G|----9--------------9--------------------|
D|-7-----10--7----7-----10--7------7------|
A|------------------------------10--------|
E|----------------------------------------|

-------------------------------Bee Sting------------------------------------

Tuning: Standard

(Whole Song)
e|---------------------------------------|
B|-7-0-7-0-7-0-7-0-----------------------|
G|-x-x-x-x-x-x-x-x-----------------------|
D|-6-6-6-6-6-6-6-6-----------------------|
A|-7-7-7-7-7-7-7-7--7-9-7-5-4-5-4-5-2----|
E|------------------5-7-5-3-2-3-2-3-0----|


--------------------------------Pacifico------------------------------------

Tuning: Standard (Capo on 4th)

(Intro)
e|--------0------------|
B|------1---1----------|
G|----2-----------2--2-|
D|--2------------------|
A|---------------------|
E|---------------------|

(Whole Song)
e|--0-----0-----0--0-0--0~-|
B|--1-----0-----0--3-3-----|
G|--2-----2-----2--2-2-----|
D|--2-----2-----2--2-2-----|
A|-------------------------|
E|-------------------------|


----------------------------Smoke Like Ribbons------------------------------

Tuning: Standard

(Intro/Chorus Chord)
e|-1--|
B|-3--|
G|-2--|
D|-0--|
A|----|
E|----|

(Intro/Chorus Guitar Line)
e|----1-1-----1-1-----1-1----1-1--|
B|----3-3-----3-3-----3-3----3-3--|
G|-2--2-2-----2-2-----2-2----2-2--|
D|---------3-------2--------------|
A|-------------------------3------|
E|--------------------------------|

(Verse/Outro Chord Progression)
e|--1-------|
B|--1---3---|
G|--2---3---|
D|--3---3---|
A|--3---1---|
E|--1-------|

(Slide Fill One)
e|----------------|
B|-/3-------------|
G|-/3---/5--5\----|
D|-/3-------------|
A|----------------|
E|----------------|

(Slide Fill Two)
e|-------------------|
B|-/10---10-10-10\---|
G|-/10---10-10-10\---|
D|-/10---10-10-10\---|
A|-------------------|
E|-------------------|

(Outro Slide riff) 
e|----------------|
B|----------------|
G|----------------|
D|-12/13\12---10--|
A|----------------|
E|----------------|

NOTE: Followed by countless fills not tabbed.

------------------------Things I Don't Remember-----------------------------

Tuning: Standard

(Whole Song)
e|-------------------------------------------------------------------------|
B|-------------------------------------------------------------------------|
G|-------------------------------------------------------------------------|
D|-7--7--7-7-7-7--7p5-5---5--5--5-7--7-7-7-7p5--5--4--4--4-5--5-5-5-5-5p4-4|
A|-7--7--7-7-7-7--7---7---7--7--7-7--7-7-7-7----7--5--5--5-5--5-5-5-5-5---5|
E|-5--5--5-5-5-5--5---5---5--5--5-5--5-5-5-5----5--------------------------|

e|---------------------------|
B|---------------------------|
G|---------------------------|
D|-2--2--2-3--3-3-3-3-3p2-2--|
A|-3--3--3-3--3-3-3-3-3---3--|
E|---------------------------|


--------------------------So Long to the Holidays---------------------------

Tuning: Standard

("Verse" Chords)
e|--3---2----|
B|--3---3----|
G|--0---2----|
D|--0---0----|
A|--2--------|
E|--3--------|

("Chorus" Chords)
e|-0---3---2---|
B|-2---3---3---|
G|-2---0---2---|
D|-2---0---0---|
A|-0---2-------|
E|-----3-------|

(Fill One)
e|------------/5---|
B|-7--5--3-3-------|
G|-----------------|
D|-----------------|
A|-----------------|
E|-----------------|

(Fill Two)
e|-----------------------------|
B|--7--5--3--2------2-----2----|
G|--------------2-----2-----2--|
D|-----------------------------|
A|-----------------------------|
E|-----------------------------|

(Fill Three)
e|-10--9-----10--9------|
B|-------10--------10---|
G|----------------------|
D|----------------------|
A|----------------------|
E|----------------------|


Any corrections, compliments or insults appreciated.
Send to: colin_michael_muppet@hotmail.com
Related for Sharpen Your Teeth tab
Sharpen Your Teeth chords by Ugly Casanova