Song name
# A B C D E F G H I J K L M N O P Q R S T U V W X Y Z

Ugly Casanova - Barnacles tab

Help us improve GuitareTab! Take a short survey!
   Em                       D
E|-------------------------------------------------|
B|-----3p0-3p0-3p0-3p0-3h5-------------------------|
G|-----------------------------2p0-2p0-2p0-2p0-2p0-|
D|-2-2---------------------0-0---------------------|
A|-------------------------------------------------|
E|-------------------------------------------------|

   Em9             Cmaj7
E|-------2----------0-0-0--------------------------|
B|---------3--------0-0-0-3p0----------------------|
G|-----------0----0-0-0-0-----3h4------------------|
D|-----2--------2-2-2-2-2--------------------------|
A|-2-2----------3-3-3-3-3--------------------------|
E|-------------------------------------------------|
Related for Barnacles tab