Guitaretab - guitar tabs
Song name
# A B C D E F G H I J K L M N O P Q R S T U V W X Y Z

Ugly Casanova - Digging Holes In Water tab




diggin' holes in water
by ugly casanova


intro,chorus and verses,,,

-------------------------------------------------'
---------8--8--8--8--8--8-----------------10-----'
---------0--0--0--0--0--0------------------------'
---------0--0--0--0--0--0----------9-------------'
---------7--7--7--7--7--7---7-8/10----10------10-'
-5--7/8--8--8--8--8--8--8------------------------'


----------------------------------------------------'
---10--10--10--10---10-10--10--10--10--10--10--10---'
----0--0---0---0-----0--0---0---0---0---0---0---0---'
----9--9---9---9-----0--0---0---0---0---0---0---0---'
---10-10--10--10-----9--9---9---9---9---9---9---9---'
--------------------10--10--10--10--10--10--10--10--'


-----------------------------------------'
-----------------------------------------'
--------b9--b9--b9-b9--b9---b9-----------'
---------x---x---x--x---x----x-----------'
--9/7---b7--b7--b7--b7--b7--b7-----------'
--------------------------------5--7/8---'

and thats the song just repeat the music over the lyerics
bobbytabasco,

I wish that you would move to the sun
cause you're like diggin' holes in thin air
and we know that can't be done

i wish that you would cheat with someone
cause you're like diggin' holes in water
and we know that can't be done
[ Tab from: http://www.guitaretab.com/u/ugly-casanova/95281.html ]
bravery and stupidity go hand in hand
i guess that makes me the bravest man
i was quick to learn but slow to understand
well, what can you do

my theories are borrowed from somewhere else
and i never had too many to talk about
but you were real quick, you were quick to point out
well, that was borrowed too

i wish that you would move to the sun
cause you're like diggin' holes in thin air
and we know that can't be done

i wish that you would cheat with someone
cause you're like diggin' holes in water
and we know that can't be done


bravery and stupidity go hand in hand
and i guess that makes me the bravest man
i was quick to learn but slow to understand
well, what can you do

rhetoric and smalltalk are marching on
and i probably am the biggest pawn
cause i was quick to talk and the first to carry on
well, what can you do

you need a permit if you're gonna build shit
and you can't get one so nothing gets built
and your house is standing on a foot and a half of silt

i wish that you would move to the sun
cause you're like diggin' holes in thin air
and we know that can't be done

i wish that you would cheat with someone
cause you're like diggin' holes in water
and we know that can't be done

rhetoric and smalltalk are marching on
and i probably am the biggest pawn
cause i was quick to talk and the first to carry on
well, what can you do
Related for Digging Holes In Water tab
×
Digging Holes In Water