Song name
# A B C D E F G H I J K L M N O P Q R S T U V W X Y Z

Ugly Kid Joe - Ill Keep Tryin tab

Help us improve GuitareTab! Take a short survey!
Tuning: half step down

intro with clean sound
-------------------------------------------------------|----------------|
-----9--10--12--10--9----------------------12--10--9/--|----------------|
----------------------9--7--------------9--------------|----------------|
---------------------------9--7------------------------|----------------|
--------------------------------10--7------------------|---------5ph~~--|
-------------------------------------------------------|-0-3-4-5--------|
                                                         (pm----)
-----------------------------|-----------|----------------|
-----------------------------|-----------|----------------|
----------------------------.|-----------|----------------|
---2-----2-----2-----2------.|--5/6-5/6--|----------------|
---2-----2-----2-----2-------|--4/5-4/5--|---------5ph~~--|
---0-----0-----0-----0-------|--3/4-3/4--|-0-3-4-5--------|
                                           (pm----)
------------------------------------|----------------------------|
------------------------------------|----------------------------|
--2-----2-----------2-----2---------|.--------------------------.|
--2-----2-----------2-----2---------|.-2--5/6-6-6---------------.|
--0-----0-----------0-----0---------|--2--4/5-5-5--7-5-4---------|
-----3b----------------3b-----------|--0--3/4-4-4--------7-5-3b--|

------------------------------------------|
------------------------------------------|
--------2-----2--3--4--6--7--6--7--8--9/--|
--2--6--2--6--2--3--4--6--7--6--7--8--9/--|
--2--6--0--6--0--1--2--4--5--4--5--6--7/--|
--0--4-----4------------------------------|

Notation used:
b-bend
pm-palm mute
/-slide
ph-pinch harmonic
~-vibrato
Related for Ill Keep Tryin tab