Song name
# A B C D E F G H I J K L M N O P Q R S T U V W X Y Z

Ugly Kid Joe - Oompa tab

Riff:

Eb|---------------------|
Bb|---------------------|
Gb|---------------------|
Db|---4-----------------|
Ab|-2-2-3-2-1-0---------|
Eb|-0-----------4-3-2-1-|

Eb|---------------------|
Bb|---------------------|
Gb|---------------------|
Db|---4-----------------|
Ab|-2-2-3-2-1-0---------|
Eb|-0-----------4-3-2-1-|

Eb|---------------------|
Bb|---------------------|
Gb|---------------------|
Db|---4-----------------|
Ab|-2-2-3-2-1-0---------|
Eb|-0-----------4-3-2-1-|

Eb|---------------------|
Bb|---------------------|
Gb|---------------------|
Db|---------------------|
Ab|-2222222222222222222-|
Eb|-0000000000000000000-|
Tap to rate this tab
# A B C D E F G H I J K L M N O P Q R S T U V W X Y Z