Guitaretab - guitar tabs
Song name
# A B C D E F G H I J K L M N O P Q R S T U V W X Y Z

Uglyz - Aaudai Jaadai tab

Aaudai Jaadai

Singer: The Uglyz

Tabbed By GgRrUuNnZz (guitar_nexus@hotmail.com)


Tab worked by Aamod
E|----------------------------------------------------------------|
B|-12-10-12--10b-10-8-10b-10------8---10-8------------------------|
G|-----------------------------s9---9------9-7---12-13s15-15b-15--|
D|----------------------------------------------------------------|
A|----------------------------------------------------------------|
E|----------------------------------------------------------------|

E|---------------------------------|
B|---------------------------------|
G|-13s15-13-12-13--13-12br12p10-12-|
D|---------------------------------|
A|---------------------------------|
E|---------------------------------|

Second Solo
E|--------------------------------14-15-14---------------------------------|
B|-----------8-10-12h13p12p10-12-----------12---15b-15-13-12---------------|
G|-9p7---9-7-------------------------------------------------14br-12h14 12-|
D|-----9-------------------------------------------------------------------|
A|-------------------------------------------------------------------------|
E|-------------------------------------------------------------------------|

E|------------------------------|
B|------------------------------|
G|-------12h14p12-14-16---------|
D|-12h14------------------------|
A|------------------------------|
E|------------------------------|

E|-------------15----12----15-----15-17-15-14-15-14-----------------------------------|
B|-------15-------15----15----15------------------------12-13p12-13p12----------------|
G|----------14--------------------------------------16-----------------14p13-14p13-12-|
D|-12s14------------------------------------------------------------------------------|
A|------------------------------------------------------------------------------------|
E|------------------------------------------------------------------------------------|

Another version of First solo
------------------------------------------------------------------------------|
--12-10-12--10b--10--8--10b--10-----8---10-8---------12-13--13/15--15b--15----|
--------------------------------7/9---9------7/9--7---------------------------|
------------------------------------------------------------------------------|
------------------------------------------------------------------------------|
------------------------------------------------------------------------------|

-----------------------------------|
---13/15--13-12-13--13-12b-10-12---|
-----------------------------------|
-----------------------------------|
-----------------------------------|
-----------------------------------|

(The Music when Singing The Song)
-----------------------------------------------------------------|
-------------------------------------------7-8-7-8-10-10/12------|
-------------7/9-7---9/11-9-7-7/9--------------------------------|
--7/9-7-5--------------------------------------------------------|
-----------------------------------------------------------------|
-----------------------------------------------------------------|

------------------------10---------------------------------------|
--12b-10---8h10p8----------12-10---------------------------------|
---------------------------------11-9------------7/9-7h8p7-------|
--------------------------------------11-9-7/9-------------------|
-----------------------------------------------------------------|
-----------------------------------------------------------------|

-----------------------------------------------------------------|
-8-7------------10b-10-8-10-10/12---12/13-12-10---8h10p8---------|
-----9-7-7/9-----------------------------------------------------|
-----------------------------------------------------------------|
-----------------------------------------------------------------|
-----------------------------------------------------------------|

--------------------------------7-8-7----------------------------|
--8-7-7-----------------7-8-10-----------------------------------|
---------7-7/9-----7-9-------------------------------------------|
-----------------------------------------------------------------|
-----------------------------------------------------------------|
-----------------------------------------------------------------|
[ Tab from: http://www.guitaretab.com/u/uglyz/178080.html ]
Another version of last solo
----------------------14-15-14---------------------------------------------|
-------12-12h13-10-12----------12--15/17--15--13--12-----------------------|
-12-14-----------------------------------------------14b-----14-12--12-14--|
---------------------------------------------------------------------------|
---------------------------------------------------------------------------|

----------------------------------I-------------14-------------------|
---------------------------12-----I--11/15-17-15--15-17-15--20-20----|
-12/14-12--------12--12-14---14---I-----------------------19---------|
-----------12/14---14-------------I----------------------------------|
----------------------------------I----------------------------------|
----------------------------------I----------------------------------|

-------------------------------------------------------------------------------|
--20b--20--19--19--20----12--12h13p12------------------------------------------|
----------------------16-----------------14--14h16p14--12--12h14p12--12--------|
-------------------------------------------------------------------------------|
-------------------------------------------------------------------------------|
-------------------------------------------------------------------------------|

------------------------------------|
------------------------------------|
---------12-------------------------|
--12/14-----14--12--12h14p12--9--7--|
------------------------------------|
------------------------------------|

G             D             C

  timro nyano  angalo ko maya

          G    D

 sadhai rahirahos

G            D                  C

 timro jiban  sadhai sadhai bhari

          G    D

phali phuli rahos

G             D                  C

manta chaiana timi bata tadha huna

         G     D

bibasta ananutho

G           D                  C

 timro mero bich dherai kura chan

          G     D

nikainai aphthero

Em    C         G      D

aundai jadai garnu yo jiban ma

Em          D          G

  katai tada nahos bhani

Em      C        G      D

  jibana ka dherai mod haru ma

Em       D      G

 nabirsidinu bhani

While playing the intro lead of the song this plugging is used. I think it is damn correct.
  G                   D                      C
E|------3-----3-3---3--------2--2-2--2------0--0-0-0-----------|
B|--------3------3---3------3-3----3--3------1----1-1----------|
G|----0----0----------0----2---2-------2---0--0------0---------|
D|---0-------------------0--------------0-2--------------------|
A|---------------------------------------3------------3--------|
E|--3-------------------3--------------------------------------|

While in the song
Timro Nyano Angaloko Maya

  G                   D               C
E|------3-----3-3---3--------2--2-2--2------0--0-0-0-----------|
B|--------3------3---3------3-3----3--3------1----1-1----------|
G|----0----0----------0----2---2-------2---0--0------0---------|
D|---0-------------------0--------------0-2--------------------|
A|---------------------------------------3------------3--------|
E|--3-------------------3--------------------------------------|

Sadhai rahi rahos ( after this cover the plugging same as of the inro)
  Em     D     G
E|----0------2-------------------------------------------------|
B|---0-0------3------------------------------------------------|
G|--0---0--2---2-----------------------------------------------|
D|--------0----------------------------------------------------|
A|-2-----------------------------------------------------------|
E|--------------33---------------------------------------------|

And at the end the plugging goes just as this:
Aaudai jaadai garnu yo jeevan ma katai tada nahos timi
Jeevan ka dherai mod haru ma na birsidinu bhani
  Em     D     G      D   Em     D     G
E|----0----2-------3----2-----0----2-----3--3-3---3------------|
B|---0-0----3-----3-3----3---0-0----3-----3----3---3-----------|
G|--0---0-2--2---0---0-2--2-0---0-2--2--0--0--------0----------|
D|-------0------0-----0----------0-----0-----------------------|
A|-2-----------------------2-----------------------------------|
E|-------------3----------------------3------------------------|
While playing middle lead play these chords G Em C D
Then take the same plugging as above.
Related for Aaudai Jaadai tab
Advertisement will be closed in 10 seconds