Song name
# A B C D E F G H I J K L M N O P Q R S T U V W X Y Z

Uh Huh Her - Ive Had Enough Acoustic tab

In the chorus, I play the open D string with the G string to add a little bass but 
that's optional. Other than that, it should be 100% correct! Enjoy!

Artist: Uh Huh Her
Song: Iíve Had Enough (Acoustic)
Album: Black and Blue EP
Tuning: Standard

Intro

e |---------------------|
B |---------------------|
G |--9-(x11)------------| or
D |---------------------|
A |---------------------|
E |---------------------|

e |-12-(x11)------------|
B |---------------------|
G |---------------------|
D |---------------------|
A |---------------------|
E |---------------------|


e |-------------------------------------------------------------|
B |-------------------------------------------------------------|
G |--9--9--7--9--9--7--7--9---11--11--4--4--2--4--4--2--2--4----|
D |-------------------------------------------------------------|
A |-------------------------------------------------------------|
E |-------------------------------------------------------------|


Verse 1

e |---------------------|
B |---------------------|
G |--9---11-------------|
D |---------------------|
A |---------------------|
E |---------------------|

e |---------------------|
B |---------------------|
G |--12-(x2)---11--4----|
D |---------------------|
A |---------------------|
E |---------------------|


Iíve lost myself again
But if I could show you places I have been
Anyway Iíve had enough
I say goodbye to you and to

e |---------------------|
B |---------------------|
G |--13-----------------|
D |---------------------|
A |---------------------|
E |---------------------|

...everyone


Chorus

e |-------------------------------------------------------------|
B |-------------------------------------------------------------|
G |--9--9--7--9--9--7--7--9---11--11--4--4--2--4--4--2--2--4----|
D |-------------------------------------------------------------|
A |-------------------------------------------------------------|
E |-------------------------------------------------------------|

ĎCause Iíve had enough
Iíd take you away

Verse 2

e |---------------------|
B |---------------------|
G |--9---11-------------|
D |---------------------|
A |---------------------|
E |---------------------|


e |---------------------|
B |---------------------|
G |--12-(x2)---11--4----|
D |---------------------|
A |---------------------|
E |---------------------|

Today I canít see much
But I got myself from fall because Iíve lost your love
but if I could breathe again
Iíd take out what you gave me in

e |---------------------|
B |---------------------|
G |--13-----------------|
D |---------------------|
A |---------------------|
E |---------------------|

Iíd take out that you gave me in

Chorus 2

e |-------------------------------------------------------------|
B |-------------------------------------------------------------|
G |--9--9--7--9--9--7--7--9---11--11--4--4--2--4--4--2--2--4----|
D |-------------------------------------------------------------|
A |-------------------------------------------------------------|
E |-------------------------------------------------------------|

Iíd take you away
Iíd take you away

Solo

e |----------------------------------------|
B |----------------------------------------|
G |-9-(x11)--12-(x11)--14-(x11)--16-(x11)--|
D |----------------------------------------|
A |----------------------------------------|
E |----------------------------------------|

Chorus 2

Outro


Solo/Outro

e |------------------------------------------|
B |------------------------------15-(x11)----|
G |-9-(x11)--12-(x11)--14-(x11)--------------|
D |------------------------------------------|
A |------------------------------------------|
E |------------------------------------------|


e |--12-(x5)--10--10/--12-|
B |-----------------------|
G |-----------------------|
D |-----------------------|
A |-----------------------|
E |-----------------------|
Tap to rate this tab
# A B C D E F G H I J K L M N O P Q R S T U V W X Y Z