Song name
# A B C D E F G H I J K L M N O P Q R S T U V W X Y Z

Uh Huh Her - Wake To Sleep tab

-------------------------------------------------------------------------------
			     WAKE TO SLEEP - UH HUH HER
-------------------------------------------------------------------------------
Tabbed by: Feeb
Email: stockholm_syndrome@live.com.au	

Tuning: Standard Tuning

Intro
e|------7-----11----9----9----6----7-----------------------------------------|
B|---------------------------------------------------------------------------|
G|---------------------------------------------------------------------------|
D|---9-----9-----9----9----9----9--------------------------------------------| x 2
A|---------------------------------------------------------------------------|
E|---------------------------------------------------------------------------|

Verse
"....you leave so soon..."
e|------7-----11----9----9----6----7-----------------------------------------|
B|---------------------------------------------------------------------------|
G|---------------------------------------------------------------------------|
D|---9-----9-----9----9----9----9--------------------------------------------| x 16
A|---------------------------------------------------------------------------|
E|---------------------------------------------------------------------------|

Chorus
e|---------------------------------------------------------------------------|
B|---------------------------------------------------------------------------|
G|--7-7-7-7-7-7-7/14-14--5-5-5-5-5-5/12--10-10-------------------------------| x 4
D|---------------------------------------------------------------------------|
A|---------------------------------------------------------------------------|
E|---------------------------------------------------------------------------|

Verse
"....time's up...."
e|------7-----11----9----9----6----7-----------------------------------------|
B|---------------------------------------------------------------------------|
G|---------------------------------------------------------------------------|
D|---9-----9-----9----9----9----9--------------------------------------------| x 16
A|---------------------------------------------------------------------------|
E|---------------------------------------------------------------------------|

End of second verse before chorus
e|---------------------------------------------------------------------------|
B|---------------------------------------------------------------------------|
G|--10-10-10-10-10-10-10-11-11/13--------------------------------------------|
D|---------------------------------------------------------------------------|
A|---------------------------------------------------------------------------|
E|---------------------------------------------------------------------------|

Second Chorus
e|---------------------------------------------------------------------------|
B|---------------------------------------------------------------------------|
G|--888888888888/15-15-15-15-15------666666666/13-11-11----------------------|
D|--666666666666/xx-xx-xx-xx-xx------666666666/xx--x--x----------------------|
A|--666666666666/13-13-13-13-13------444444444/11--9--9----------------------| x 8
E|---------------------------------------------------------------------------|

Outro
e|---------------------------------------------------------------------------|
B|---------------------------------------------------------------------------|
G|---------------------------------------------------------------------------|
D|---------------------------------------------------------------------------|
A|---------------------------------------------------------------------------| x 10
E|--6-6-6--------------------------------------------------------------------|




************************************

| /   slide up
| \   slide down
| h   hammer-on
| p   pull-off
| ~   vibrato
| +   harmonic
| x   Mute note
| b   Bend
| pb  Pre-bend
| br  Bend release
| pbr Pre-bend release
| brb Bend release bend

************************************
Tap to rate this tab
# A B C D E F G H I J K L M N O P Q R S T U V W X Y Z