Song name
# A B C D E F G H I J K L M N O P Q R S T U V W X Y Z

Uh Huh Her - Human Nature tab

-------------------------------------------------------------------------------
			     HUMAN NATURE - UH HUH HER
-------------------------------------------------------------------------------
Tabbed by: Feeb
Email: stockholm_syndrome@live.com.au

Tuning: Standard Tuning

Description: On-Airstreaming version of Human Nature, NOT the album version off 
Nocturnes. However, the Human Nature album version is a step up from this version.

Intro w/delay effect on guitar.
e|---------------------------5------5-------------4-----4-------------4-----4------------|
B|--4-5-7--4-5-7--4-5----4-5----4-5---4-5-----4-5---4-5---4-5-----4-5----4-5---4-5-------|
G|---------------------------------------------------------------------------------------|
D|---------------------------------------------------------------------------------------|
A|---------------------------------------------------------------------------------------|
E|---------------------------------------------------------------------------------------|

e|--7~-------5~--------0~----------------------------------------------------------|
B|--7~-------5~--------0~----------------------------------------------------------|
G|--8~-------6~--------1~----------------------------------------------------------|
D|--9~-------7~--------2~----------------------------------------------------------|
A|--9~-------7~--------2~----------------------------------------------------------|
E|--7~-------5~--------0~----------------------------------------------------------|
    Bm       A         E

Chords Bm, A and E throughout the entire song.



************************************

| /   slide up
| \   slide down
| h   hammer-on
| p   pull-off
| ~   vibrato
| +   harmonic
| x   Mute note
| b   Bend
| pb  Pre-bend
| br  Bend release
| pbr Pre-bend release
| brb Bend release bend

************************************
Tap to rate this tab
# A B C D E F G H I J K L M N O P Q R S T U V W X Y Z