Song name
# A B C D E F G H I J K L M N O P Q R S T U V W X Y Z

Uk Subs - Telephone Numbers tab

-------------------------------------------------------------------------------
Telephone Numbers - UK Subs
Another Kind Of Blues
-------------------------------------------------------------------------------
Tabbed by: axeslash
Email: holmzito@yahoo.com

Tuning: Standard for both guitars

Guitar 1:
e|---------------------------------------------------|
B|-12-X-X-X-X-12--12-12--12--------------------------|
G|-11-X-X-X-X-11--11-11--11-12-X-X-X-X-12--12-12--12-|
D|--9-X-X-X-X--9---9--9---9-12-X-X-X-X-12--12-12--12-|
A|--------------------------10-X-X-X-X-10--10-10--10-|
E|---------------------------------------------------| x4

Guitar 1:
e|--------------------------------------------------------|
B|-12-12-12-12--------------------------------------------|
G|-11-11-11-11-12-12-12-12-14-14-14-14----11--11--11--11--|
D|--9--9--9--9-12-12-12-12-14-14-14-14----11--11--11--11--|
A|-------------10-10-10-10-12-12-12-12-----9---9---9---9--|
E|--------------------------------------------------------| x2

Guitar 1:
e|---------------------------------------------------|
B|-12-X-X-X-X-12--12-12--12--------------------------|
G|-11-X-X-X-X-11--11-11--11-12-X-X-X-X-12--12-12--12-|
D|--9-X-X-X-X--9---9--9---9-12-X-X-X-X-12--12-12--12-|
A|--------------------------10-X-X-X-X-10--10-10--10-|
E|---------------------------------------------------| x4

Guitar 1:
e|-----------------------------------------------------------------|
B|----10~--10~-10~-10~-10~-10~-10~----10~--10~-10~-10~-10~-10~-10~-|
G|-10-10~--10~-10~-10~-10~-10~-10~-10-10~--10~-10~-10~-10~-10~-10~-|
D|-----------------------------------------------------------------|
A|-----------------------------------------------------------------|
E|-----------------------------------------------------------------| x2
Guitar 1:
e|---------------------------------------------------|
B|-12-X-X-X-X-12--12-12--12--------------------------|
G|-11-X-X-X-X-11--11-11--11-12-X-X-X-X-12--12-12--12-|
D|--9-X-X-X-X--9---9--9---9-12-X-X-X-X-12--12-12--12-|
A|--------------------------10-X-X-X-X-10--10-10--10-|
E|---------------------------------------------------| x2

Guitar 1:
e|---------------------------------------------------|
B|-12-X-X-X-X-12--12-12--12--------------------------|
G|-11-X-X-X-X-11--11-11--11-12-X-X-X-X-12--12-12--12-|
D|--9-X-X-X-X--9---9--9---9-12-X-X-X-X-12--12-12--12-|
A|--------------------------10-X-X-X-X-10--10-10--10-|
E|---------------------------------------------------| x4

Guitar 1:
e|--------------------------------------------------------|
B|-12-12-12-12--------------------------------------------|
G|-11-11-11-11-12-12-12-12-14-14-14-14----11--11--11--11--|
D|--9--9--9--9-12-12-12-12-14-14-14-14----11--11--11--11--|
A|-------------10-10-10-10-12-12-12-12-----9---9---9---9--|
E|--------------------------------------------------------| x2


| /  slide up
| \  slide down
| h  hammer-on
| p  pull-off
| ~  vibrato
| +  harmonic
| x  Mute note
===============================================================================
Tap to rate this tab
# A B C D E F G H I J K L M N O P Q R S T U V W X Y Z