Song name
# A B C D E F G H I J K L M N O P Q R S T U V W X Y Z

Uk Subs - Death Row tab

Death Row: U.K. Subs


Intro / Verse 
e|----------------------------------------------------------------------| 
B|----------------------------------------------------------------------| 
G|---------------------------4/4-4-4-4---6/6-6-6-6----------------------| 
D|---7/7-7-7-7---4/4-4-4-4---4/4-4-4-4---6/6-6-6-6----------------------| 
A|---7/7-7-7-7---4/4-4-4-4---2/2-2-2-2---4/4-4-4-4----------------------| 
E|---5/5-5-5-5---2/2-2-2-2----------------------------------------------|


chorus

e|----------------------------------------------------------------------| 
B|----------------------------------------------------------------------| 
G|-------------4---6-6--------------------------------------------------| 
D|---4-4-4-4---4---6-6--------------------------------------------------| 
A|---4-4-4-4---2---4-4--------------------------------------------------| 
E|---2-2-2-2------------------------------------------------------------|



e|----------------------------------------------------------------------| 
B|----------------------------------------------------------------------| 
G|-------------4-4-4-4---6-6-6-6----------------------------------------| 
D|---4-4-4-4---4-4-4-4---6-6-6-6----------------------------------------| 
A|---4-4-4-4---2-2-2-2---4-4-4-4----------------------------------------| 
E|---2-2-2-2------------------------------------------------------------|



repeat verse



Im Fredy Perez
for U.K. Subs 


Tap to rate this tab
# A B C D E F G H I J K L M N O P Q R S T U V W X Y Z