Song name
# A B C D E F G H I J K L M N O P Q R S T U V W X Y Z

Uk Subs - Stranglehold tab

Help us improve GuitareTab! Take a short survey!
-------------------------------------------------------------------------------
			     Stranglehold - UK Subs
-------------------------------------------------------------------------------
Tabbed by: childofbodem
Email:bradleyion@hotmail.com

Tuning: Standard


Basically there's two parts to the song (A fill type thing and some power chords.)


SOLO
e|----------------------------------------------------------|----------------|     
B|----------------------------------------------------------|----------------| 
G|----------------------------------------------------------|----------------|  X3
D|----7----10----7----10----7----10----7----10----7----10---|----------------|
A|----------------------------------------------------------|----------------|
E|----------------------------------------------------------|----------------|


e|---------------------------------------------------------------------------|
B|---------------------------------------------------------------------------|
G|---------------------------------------------------------------------------|
D|----10----12----10----12----10----12----10----12----12----10---------------|
A|---------------------------------------------------------------------------|
E|---------------------------------------------------------------------------|





POWER CHORDS (Rhythm)
e|---------------------------------------------------------------------------|
B|---------------------------------------------------------------------------|
G|---------------------------------------------------------------------------|
D|----7--7-------------------------------------------------------------------|
A|----5--5---7-7-------------------------------------------------------------|
E|-----------5-5-------------------------------------------------------------|





Basically that's it. Listen to the song to get the rhythm. Also when the singer 
goes "Stranglehold on me..." I just do a bit of power chord improv, but when I 
figure it out properly I'll tab it on here. 
Related for Stranglehold tab