Song name
# A B C D E F G H I J K L M N O P Q R S T U V W X Y Z

Uk Subs - Still Life tab

UK Subs - Still Life from Another Typical City single 1983
by: Frederick Pz from Barranquilla/Colombia
Email: buzzersounds@gmail.com




Intro
e|---------7-7--7-7--7--9-----------------------------------------------| 
B|---------7-7--7-7--7--9-----------------------------------------------| 
G|----------------------------------------------------------------------| 
D|----------------------------------------------------------------------| 
A|----------------------------------------------------------------------| 
E|----------------------------------------------------------------------|


verse (palm mute)

e|----------------------------------------------------------------------| 
B|----------------------------------------------------------------------| 
G|----------------------------------------------------------------------| 
D|--------------9--7----------------------------------------------------| 
A|--9-9-9-9--9--7--5---------7-7-7-7---9-9------------------------------| 
E|--7-7-7-7--7---------------5-5-5-5---7-7------------------------------|



pre chorus
e|----------------------------------------------------------------------| 
B|----------------------------------------------------------------------| 
G|-|--------------------------------------------------------------------| 
D|--------------9--7----------------------------------------------------| 
A|--9-9-9-9--9--7--5---------7-7-7-7---9-9---9-8-7-------9--------------| 
E|--7-7-7-7--7---------------5-5-5-5---7-7---7-6-5-(x3)--7--------------|



 
e|----------------------------------------------------------------------| 
B|----------------------------------------------------------------------| 
G|----------------------------------------------------------------------| 
D|--7-7---9-9-----7-7---9-9---------------------------------------------| 
A|--5-5---7-7-----5-5---7-7---------------------------------------------| 
E|----------------------------------------------------------------------|




solo
e|---------7-7--7-7---------9-9--9-9--9--8-7----------------------------| 
B|---------7-7--7-7-(bend)--9-9--9-9--9--8-7----------------------------| 
G|----------------------------------------------------------------------| 
D|----------------------------------------------------------------------| 
A|----------------------------------------------------------------------| 
E|----------------------------------------------------------------------|

repeat  verse & pre chorus
Finish the song:
Bass on E
Guitar on B (palm mute and riff)


Tap to rate this tab
# A B C D E F G H I J K L M N O P Q R S T U V W X Y Z