Song name
# A B C D E F G H I J K L M N O P Q R S T U V W X Y Z

Uk Subs - New York State Police tab

Intro
e|------------------------------|
B|------------------------------|
G|------------------------------|
D|------------------------------|2X
A|----8--8-9--9-11-11h12p11-8---|
E|------------------------------|

Verse
e|---------------------------------------------------------------|
B|---------------------------------------------------------------|
G|---------------------------------------------------------------|
D|-11111111111111--9999999--12121212121212--9999999--------------|
A|-11111111111111--9999999--12121212121212--9999999--------------|
E|--9-9-9-9-9-9-9--7777777--10101010101010--7777777--------------|

Chorus
e|--------------------/-----------------------|
B|--------------------/-----------------------|
G|--------------------/-----------------------|
D|-77777--9999--1212--/---77777--99999--------|
A|-77777--9999--1212--/---77777--99999--------|
E|-55555--7777--1010--/---55555--77777--------|

Bridge
e|---------------------------------------------------|
B|---------------------------------------------------|
G|-11111111111111------------------------------------|
D|-11111111111111--9999999--11111111111111-----------|2X
A|--9-9-9-9-9-9-9--9999999--11111111111111-----------|
E|-----------------7777777---9-9-9-9-9-9-9-----------|

e|---------------------------------------------------|
B|---------------------------------------------------|
G|---------------------------------------------------|
D|-12121212121212--9999999--11111111111111-----------|
A|-12121212121212--9999999--11111111111111-----------|
E|-10101010101010--7777777---9-9-9-9-9-9-9-----------|

e|---------------------------------------------------|
B|---------------------------------------------------|
G|---------------------------------------------------|
D|-12121212121212--7777777--9999999------------------|
A|-12121212121212--7777777--9999999------------------|
E|-10101010101010--5555555--7777777------------------|

End
e|------------------------------------------------------|
B|------------------------------------------------------|
G|-----------------------------10--10-11--11-13-13h14p13|
D|------------------------------------------------------|
A|----8--8-9--9-11-11h12p11-8---------------------------|
E|------------------------------------------------------|
Tap to rate this tab
# A B C D E F G H I J K L M N O P Q R S T U V W X Y Z