Song name
# A B C D E F G H I J K L M N O P Q R S T U V W X Y Z

Uk Subs - Emotional Blackmail tab

Intro
Riff 1
e|------------------------------------|
B|------------------------------------|
G|------------------------------------|
D|--9-999--10--12---9-999--10---------|
A|--9-999--10--12---9-999--10---------|2X
E|--7-777---8--10---7-777---8---------|

Verse
e|------------------------------------|
B|------------------------------------|
G|---------99-------------------------|
D|--99999--99--10--12-----------------|
A|--99999--77--10--12-----------------|
E|--77777-------8--10-----------------|

Chorus
e|--------/----------------------------|
B|--------/----------------------------|
G|--------/----------------------------|
D|-10--12-/--99999999--10--12----------|
A|-10--12-/--99999999--10--12----------|
E|--8--10-/--77777777---8--10----------|

Riff 2
e|------------------------------------|
B|------------------------------------|
G|------------------------------------|
D|--9-9-9-9-9-9-9-9-9-9-9-9-9---------|
A|--9-9-9-9-9-9-9-9-9-9-9-9-9---------|
E|--7-7-7-7-7-7-7-7-7-7-7-7-7---------|

Verse
e|------------------------------------|
B|------------------------------------|
G|---------99-------------------------|
D|--99999--99--10--12-----------------|
A|--99999--77--10--12-----------------|
E|--77777-------8--10-----------------|

Chorus
e|--------/----------------------------|
B|--------/----------------------------|
G|--------/----------------------------|
D|-10--12-/--99999999--10--12----------|
A|-10--12-/--99999999--10--12----------|
E|--8--10-/--77777777---8--10----------|

Bridge
Riff 1
e|------------------------------------|
B|------------------------------------|
G|------------------------------------|
D|--9-999--10--12---9-999--10---------|
A|--9-999--10--12---9-999--10---------|2X
E|--7-777---8--10---7-777---8---------|

Riff 2
e|------------------------------------|
B|------------------------------------|
G|------------------------------------|
D|--9-9-9-9-9-9-9-9-9-9-9-9-9---------|
A|--9-9-9-9-9-9-9-9-9-9-9-9-9---------|
E|--7-7-7-7-7-7-7-7-7-7-7-7-7---------|

The song ends with a solo, I'm not sure but it's something like 9-7-10-7-9-7 in the
second string and goes, so just try to figure it out.

Thanks!
Tap to rate this tab
# A B C D E F G H I J K L M N O P Q R S T U V W X Y Z